Bibio

Mr. And Mrs. Compost

Bibio

tabs

by  ROBEPOIEL

save to print version add songbook text version e-mail correct tuner
chordsukulelecavacokeyboardtabbassdrumsharmonicaflute Guitar Pro
close

there isn't a video lesson for this song

chords

Mr. And Mrs. Compost

	  		


Intro / most of song: 

d#|-5----5-------------3----3-----------3----3----------2----2------------| 
A#|-----------------------3---2h3-3--3-----3---3--3--3-----3----4h2-2--2--| 
F#|----7---6h7-7--7------2---2----2---2-----------------------------------| 
C#|---7---7----7---7---2---2----2---2-----5---5---5---5---4---4-----4---4-| 
G#|-5---5----5---5----------------------3---3---3---3---0---0---0-----0---| 
D#|-----------------------------------------------------------------------| 

"Layering wavering shadows" / "That tree is beautiful": 

d#|-2----2-----------1----1-----------0----0-----------0----0-------------| 
A#|----3---2h3-2--2-----3---2h3-3--3-----2---0h2-2--2-----2?--0h2-2--2----| 
F#|-----------------------------------------------------------------------| 
C#|---4---4----4---4---3---3----3---3---2---2----2---2---2---2----2---2---| 
G#|-2---2----2---2---1---1----1---1---0---0----0---0---0---0----0---0-----| 
D#|-----------------------------------------------------------------------| 

 
		  

See also:

tabs Sting - After The Rain Has Fallen tabs Kenny G - Dying Young tabs Duran Duran - Rio tabs Green Jelly - Three Little Pigs tabs Toto - Don't Chain My Heart tabs Toto - Home Of The Brave
e-chords

Other versions:

tabs Bibio - Mr. And Mrs. Compost
auto scroll beats size up size down change color hide chords drawings
tab show chords e-chords YouTube Clip e-chords hide all tabs e-chords go to top tab

share