Base 071

1x0 Eu (dibob Cover)

Base 071

tabs Beginner beginner

by  SWORDFISHWTR

save to print version add songbook text version e-mail correct tuner
chordsukulelecavacokeyboardtabbassdrumsharmonicaflute Guitar Pro
close

there isn't a video lesson for this song

chords

1x0 Eu (dibob Cover)

	  		Intro: B F# G# E 3x 

na 2a vez entra guita solo 
G|--4-4-6-8-6--6-6-8-9-8--8-8-6-8-4--4-4-3-3-4- 
D|--------------------------------------------- 
A|--2-2-4-6-4--4-4-6-7-6--6-6-4-6-2--2-2-1-1-2- 

G|--4-4-6-8-6--6-9-8-6-8--8-8-6-8-4--4-4-3-3-4- 
D|--------------------------------------------- 
A|--2-2-4-6-4--4-7-6-4-6--6-6-4-6-2--2-2-1-1-2- 

B F# G# E 2x 
você me perdeu, não percebeu 
que não deu valor pra mim 
agora é tarde demais, já não te quero mais  
vai ter que aprender a viver assim 

Riff:  

OBS: Com distorção 

e|------------11------------- 
B|-9-----12-9------11----12-- 
G|---8-9---------9----10----- 
D|--------------------------- 
A|--------------------------- 
E|--------------------------- 

G#              E  
pois quando me tinha não soube cuidar 
G#       D#                     E  
ganhava sempre no seu jogo de amar 
            B           F#            E  
e agora vem correndo me pedindo pra voltar 
         F# 
não vai dar 

A|--4-6-6h7-7-7-4--- 
E|----------------6- 

base: B F# E F# 2x 
solo:  
E|----------------------------------------------------------------------- 
B|------------------------7-------------------------4-5-7---------------- 
G|--4--4-6b8--6-6---4-6b8---6-4---4-----4-6-6---4-6---------------------- 
D|----------------------------------4h6---------------------------------- 
A|----------------------------------------------------------------------- 
E|----------------------------------------------------------------------- 

E|----------------------------------------------------------------4-6-7~- 
B|-----------7-----------------------------------------------4-5-7------- 
G|--4--4-6b8---6-6---4-6b8-6b8--6-4---4-----4-6-6---6-3-4-6-------------- 
D|--------------------------------------4h6------------------------------ 
A|----------------------------------------------------------------------- 
E|----------------------------------------------------------------------- 

B F# G# E 2x 
o jogo inverteu, você se perdeu 
e o seu filme queimou 
mas vai ser bom pra você, você vai aprender 
a dar mais valor pra quem te deu 

Riff: 

OBS: Com distorção 

e|------------11------------- 
B|-9-----12-9------11----12-- 
G|---8-9---------9----10----- 
D|--------------------------- 
A|--------------------------- 
E|--------------------------- 

G#              E  
pois quando me tinha não soube cuidar 
G#       D#                     E  
ganhava sempre no seu jogo de amar 
            B           F#            E  
e agora vem correndo me pedindo pra voltar 
         F# 
não vai dar 

A|--4-6-6h7-7-7-4--- 
E|----------------6- 

B                  F#                     E    
cê abusou do meu amor e tá pedindo pra voltar   : 
F#                                              : Refrão 2x 
e eu tô dizendo não vai dar                     : 

    B          F#         G#         E 
G|--4-4-6-8-6--6-6-8-9-8--8-8-6-8-4--4-4-3-3-4- 
D|--------------------------------------------- 
A|--2-2-4-6-4--4-4-6-7-6--6-6-4-6-2--2-2-1-1-2- 

G|--4-4-6-8-6--6-9-8-6-8--8-8-6-8-9--9-9-9-9-9- 
D|--------------------------------------------- 
A|--2-2-4-6-4--4-7-6-4-6--6-6-4-6-7--7-7-7-7-7- 

G#              E  
pois quando me tinha naum soube cuidar 
G#       D#                     E  
ganhava sempre no seu jogo de amar 
            B           F#            E  
e agora vem correndo me pedindo pra voltar 
         F# 
naum vai dar 

B                  F#                     E  
cê abusou do meu amor e tá pedindo pra voltar      : 
F#                                                 : Refrão 6x 
e eu tô dizendo não vai dar                        : 


Obs: No Refrão, enquanto a base faz as notas E e F# a outra guitarra 
     faz E D# C# em oitava. 
		  

Full key step upFull key step up
Half key step upHalf key step up
Half key step downHalf key step down
Full key step downFull key step down
hide glossary

See also:

tabs Cachorro Grande - Você não sabe o que perdeu (solos) tabs Roupa Nova - Seguindo no Trem Azul (solo) tabs Frejat - Segredos tabs Roupa Nova - Anjo tabs Kid Abelha - Pintura íntima tabs Roupa Nova - Whisky A Go-Go (solo final)
e-chords

Other versions:

tabs Base 071 - 1x0 Eu (dibob Cover) tabs Dibob - 1x0 eu( Ver. 2)
auto scroll beats size up size down change color hide chords drawings
tab show chords e-chords YouTube Clip e-chords hide all tabs e-chords go to top tab

share