Bambix

Summer Song

Bambix

tabs

by  NATASSHA.X

save to print version add songbook text version e-mail correct tuner
chordsukulelecavacokeyboardtabbassdrumsharmonicaflute Guitar Pro
close

there isn't a video lesson for this song

chords

Summer Song

	  		---------Bambix-----SummerSong------------- 
 
Intro 
e|----------------------------------| 
B|----------------------------------| 
G|--6-6--2--4-4------------*-*-*-*--| 
D|--6-6--2--4-4--6-6-6--2--4-4-4-4--| 
A|--4-4--0--2-2--6-6-6--2--4-4-4-4--| 
E|---------------4-4-4--0--2-2-2-2--|  
 
 
Melody 1 
e|--------------------------------|----------------| 
B|---------4h5--4--5--4-----------|----------------| 
G|-4--6-6-----------------6--4--6-|-4--6--4--------| 
D|--------------------------------|----------6h7h6-| 
A|--------------------------------|----------------| 
E|--------------------------------|----------------| 
 
 
e|---------------------------------|------------------| 
B|--------4h5--7-77777--5--4--5----|-4--5--4----------| 
G|-4--6-6------------------------6-|----------6--4-6--| 
D|---------------------------------|------------------| 
A|---------------------------------|------------------| 
E|---------------------------------|------------------| 
 
 
Verse 
e|-------------3times----------------|----------------------------------| 
B|-----------------------------------|----------------------------------| 
G|-6-6--2--4-4-4---------------2-2-2-|-6-6--2--4-4-4-------2-2-2--4-4-4-| 
D|-6-6--2--4-4-4--6-6--2--4-4--2-2-2-|-6-6--2--4-4-4--6-6--2-2-2--4-4-4-| 
A|-4-4--0--2-2-2--6-6--2--4-4--0-0-0-|-4-4--0--2-2-2--6-6--0-0-0--2-2-2-| 
E|----------------4-4--0--2-2--------|----------------4-4---------------| 
 
 
Chorus 
e|---------------------2times--------------------------| 
B|-----------------------------------------------------| 
G|-----------2-2--6-4-2--4-2-4------------2-2-2--4-4-4-| 
D|-2-2--6-6--2-2--6-4-2--4-2-4--2-2--6-6--2-2-2--4-4-4-|  
A|-2-2--6-6--0-0--4-2-0--2-0-2--2-2--6-6--0-0-0--2-2-2-| 
E|-0-0--4-4---------------------0-0--4-4---------------| 
 
 
Bridge 
e|----------------------------|---------------------------------| 
B|----------------------------|---------------------------------| 
G|-2-2-2---------4-4-4--2-2-2-|-2-2-2---------4-4-4--2-2-2--4-4-| 
D|-2-2-2--6-6-6--4-4-4--2-2-2-|-2-2-2--6-6-6--4-4-4--2-2-2--4-4-| 
A|-0-0-0--6-6-6--2-2-2--0-0-0-|-0-0-0--6-6-6--2-2-2--0-0-0--2-2-| 
E|--------4-4-4---------------|--------4-4-4--------------------| 
 
Melody 2 
e|--------------------------------|----------------|---------------------| 
B|---------4h5--4--5--4-----------|----------------|---------4h5--7--8+--| 
G|-4--6-6-----------------6--4--6-|-4--6--4--------|-4--6-6--------------| 
D|--------------------------------|----------6h7h6-|---------------------| 
A|--------------------------------|----------------|---------------------| 
E|--------------------------------|----------------|---------------------| 
 
Chorus 2 
e|-------------------2times----------------------------| 
B|-----------------------------------------------------| 
G|------3-3--4-4--8-6-4--6-4-6-------3-3--4-4-4--6-6-6-| 
D|-4-4--3-3--4-4--8-6-4--6-4-6--4-4--3-3--4-4-4--6-6-6-| 
A|-4-4--1-1--2-2--6-4-2--4-2-4--4-4--1-1--2-2-2--4-4-4-| 
E|-2-2--------------------------2-2--------------------| 
 
 
Song Structure: 
 
Play Intro  
Play Melody1 .......... 
Play Verse ............ 
Play Chorus ........... 
Play Verse ............ 
Play Bridge ........... 
Play Chorus ........... 
Play Melody 2 ......... 
Play Chorus 2 ......... 
End on F# 
 
---------------------------------------- 
 
Note: DonŽt forget the notes on each part! 
      IŽm sure the hammering technique is wrong, but while 
      playing the song youŽll know how to play it. 
 
In memory of Freiburg 23.12.00 
 
-------------------------------------- 
 
By: [email protected] (Downfly) 
 
------------------------------------- 
 
 

		  

Full key step upFull key step up
Half key step upHalf key step up
Half key step downHalf key step down
Full key step downFull key step down
hide glossary

See also:

tabs Blink 182 - Adam's Song tabs Blink 182 - All The Small Things (Original) tabs Green Day - American Idiot tabs Green Day - Time of your life (good ridance) tabs Green Day - When I Come Around tabs Green Day - The Simpsons Theme
e-chords

Other versions:

tabs Bambix - Summer Song tabs Joe Satriani - Summer Song tabs Joe Satriani - Summer song (ver. 2)
auto scroll beats size up size down change color hide chords drawings
tab show chords e-chords YouTube Clip e-chords hide all tabs e-chords go to top tab

share