Bambix

Andre

Bambix

tabs

by  NATASSHA.X

save to print version add songbook text version e-mail correct tuner
chordsukulelecavacokeyboardtabbassdrumsharmonicaflute Guitar Pro
close

there isn't a video lesson for this song

chords

Andre

	  		Author/Artist: Bambix 
Title: Andre 
Album: Bomben Beilagen 2 
 
 
Intro 
e-|----------------------------------------------------|----------------------- 
B-|-------------------------------------------------8--|----------------------- 
G-|--5-7-8--5-7-8--10-8-7--10-8-7--8-7-5--8-7-5-7-5----|----------------------- 
D-|----------------------------------------------------|----------------------- 
A-|----------------------------------------------------|----------------------- 
E-|----------------------------------------------------|----------------------- 
                                                                               
Verse 
e-|------------------------------|--------------------------------------------- 
B-|------------------------------|--------------------------------------------- 
G-|--3-3-3--5-5-5---------3-3-3--|--------------------------------------------- 
D-|--3-3-3--5-5-5--6-6-6--3-3-3--|--------------------------------------------- 
A-|--1-1-1--3-3-3--6-6-6--1-1-1--|--------------------------------------------- 
E-|----------------4-4-4---------|--------------------------------------------- 
                                                                               
 
Chours 
e-|---------------------------|------------------------------------------------ 
B-|---------------------------|------------------------------------------------ 
G-|--5-5-5---------3-3-3-5-3--|------------------------------------------------ 
D-|--5-5-5--6-6-6--3-3-3-5-3--|------------------------------------------------ 
A-|--3-3-3--6-6-6--1-1-1-3-1--|------------------------------------------------ 
E-|---------4-4-4-------------|------------------------------------------------ 
                                                                               
 
Breake 
e-|-------------------|-------------------------------------------------------- 
B-|-------------------|-------------------------------------------------------- 
G-|-------------------|-------------------------------------------------------- 
D-|--5------6------8--|-------------------------------------------------------- 
A-|--5------6------8--|-------------------------------------------------------- 
E-|--3------4------6--|-------------------------------------------------------- 
                                                                               
 
Ending 
e-|-----------------------------------------|---------------------------------- 
B-|-----------------------------------------|---------------------------------- 
G-|--5-5-5--8-8---------8-8--3-3-3--8-8--5--|---------------------------------- 
D-|--5-5-5--8-8--6-6-6--8-8--3-3-3--8-8--5--|---------------------------------- 
A-|--3-3-3--6-6--6-6-6--6-6--1-1-1--6-6--3--|---------------------------------- 
E-|--------------4-4-4----------------------|---------------------------------- 
 
 
e-|-----------------------------------------|---------------------------------- 
B-|-----------------------------------------|---------------------------------- 
G-|--5-5-5--8-7---------8-7--3-3-3--8-7--5--|---------------------------------- 
D-|--5-5-5--8-7--6-6-6--8-7--3-3-3--8-7--5--|---------------------------------- 
A-|--3-3-3--6-5--6-6-6--6-5--1-1-1--6-5--3--|---------------------------------- 
E-|--------------4-4-4----------------------|---------------------------------- 
 
 
 
--------------------------------------- 
----Transcribed by: Chris--- 
Web: www.kata.xdn.de 
 

		  

See also:

tabs Blink 182 - Adam's Song tabs Blink 182 - All The Small Things (Original) tabs Green Day - American Idiot tabs Green Day - Time of your life (good ridance) tabs Green Day - When I Come Around tabs Green Day - The Simpsons Theme
e-chords

Other versions:

tabs Bambix - Andre tabs MxPx - Andrea tabs Seahaven - Andreas tabs The Sisters Of Mercy - Andrenochrome tabs Bowling For Soup - Andrew tabs Phantom Of The Opera - Andrew llyod webber
auto scroll beats size up size down change color hide chords drawings
tab show chords e-chords YouTube Clip e-chords hide all tabs e-chords go to top tab

share