Baden Powell

home > Baden Powell

Samba Em Prelúdio Tab

Baden Powell

Difficulty: EasyEasy

by Acelot

tuner correct add songbook print version text version save to e-mail
chordsukulelecavacokeyboardtabbassdrumsharmonicsflute Guitar Pro
chords

Samba Em Prelúdio

Year: 2005 - Album: Le Monde Musical de Baden Powell

(Baden Powell/ Vinícius de Moraes)

  		
Parte 1:  

e|---------------7--8----7-------------------8--7------------------||---8----7\-------------------7---  
B|-------------8----8----------------7--10---7---------------6--9--||---6--------1-----1---5--8---8--- 
G|---9------9-------9-------8-----8----------8------7-----7--------||---6----------2--------------5--- 
D|-------9---------------------7-------------7---------6-----------||---6-----------------------------  
A|--------------------------9-----------------------8--------------||------------0----------------0---  
E|-----0------------0----------------------------------------------||--------------------------------- 

e|---------------7-----------5\---0-3-5----||------------------3---2~------------3--|  
B|----1---5--8----------7-------0--------0-||-----------2--5---2-----------1--4--1--|    
G|----------------------8----------------0-||--3---------------3-------2---------2--|   
D|----------------------7------------------||------4-----------2-------1---------1--|    
A|----0--------------9---------------------||------------------------------------0--| 
E|---------------7--------------0-----0----||----2-------------0-------2------------| 

Parte 2: 

e|---------------7--8----7-------------------8--7------------------||---8----7\-------------------7--- 
B|-------------8----8----------------7--10---7---------------6--9--||---6--------1-----1---5--8---8--- 
G|---9------9-------9-------8-----8----------8------7-----7--------||---6----------2--------------5--- 
D|-------9---------------------7-------------7---------6-----------||---6----------------------------- 
A|--------------------------9-----------------------8--------------||------------0----------------0--- 
E|-----0------------0----------------------------------------------||--------------------------------- 
                                                                  Refrăo: 
e|-------------7---------------------5\--------------3-------------||---3--5--6--6--6--6--5--3--5-----3\-0-------| 
B|--1---5--8-------------7-----7---------0-----0--------0-----0----||---------5--------------------4-----------0-| 
G|--------------------------8-----8---------0-----0--------0-----0-||---------3--------------------4-----------0-| 
D|--------------------7--------------------------------------------||---------4--------------------4-----------4-| 
A|--0--------------9-----------------------------------------------||---------------------------0-----------2----| 
E|-------------7---------------------------------------------------||------------------------------------0-------| 

Chorus - Parte 1:  

e|---15----------------14--------------12--12-------------------------||--11----------------------7--8--10----------12---10---11---   
B|-----------0-----0----------0-----0--------------10------10------10-||----------10------10--------------------9------------------ 
G|-------12-----12--------12-----12--------------------11------11-----||------11------11--------------------10--------------------- 
D|---------------------------------------------10---------------------||--10-----------------------------9--------------------12--- 
A|-----------------------------------------0--------------------------||----------------------------------------------------------- 
E|---0----------------------------------------------------------------||----------------------------------------------------------- 

e|----------------------12--10--10---8----8--||--8----------------7-------------||--5--5---------------3------------------3--5--6-------------5--3--6---   
B|-------12------12--------------------------||---------5-----5--------7---7----||-----------0-----0-----------0-----0----------------5----5------------ 
G|---13------13------------------------------||------5-----5-------------8-8----||--------0-----0-----------0-----0----------------6----6--------------- 
D|-------------------------------------------||---------------------------------||----------------------------------------------5----------------------- 
A|------------------------------0---------0--||--0-------------------9----------||---------------------------------------------------------------------- 
E|-------------------------------------------||-------------------7-------------||-----0----------------0----------------------------------------------- 

e|----------------2--3--5---------------3--2---5---------------|        
B|------5-----5---------------4-----4-----------------4-----4--|        
G|---6-----6---------------5-----5-----------------5-----5-----|   
D|----------------------4----------------------4---------------|   
A|-------------------------------------------------------------|  
E|-------------------------------------------------------------|    

Chorus - Parte 2:  

e|---15----------------14--------------12--12-------------------------||--11----------------------7--8--10----------12---10---11--- 
B|-----------0-----0----------0-----0--------------10------10------10-||----------10------10--------------------9------------------ 
G|-------12-----12--------12-----12--------------------11------11-----||------11------11--------------------10--------------------- 
D|---------------------------------------------10---------------------||--10-----------------------------9--------------------12--- 
A|-----------------------------------------0--------------------------||----------------------------------------------------------- 
E|---0----------------------------------------------------------------||----------------------------------------------------------- 

e|--------------------12--10--10---8----8--||--8----------------7-----------||-5--5---------------3----------------|-3--5--6-------------5--3--5--- 
B|-----12------12--------------------------||---------5-----5--------7---7--||----------0-----0-----------0-----0--|-------------5----5------------   
G|-13------13------------------------------||------5-----5-------------8-8--||-------0-----0-----------0-----0-----|----------3----3--------------- 
D|-----------------------------------------||-------------------------------||-------------------------------------|-------4----------------------- 
A|----------------------------0---------0--||--0-------------------9--------||-------------------------------------|---------------------------0--- 
E|-----------------------------------------||-------------------7-----------||----0----------------0---------------|------------------------------- 

e|------------2/3--0---------------0---0-| 
B|-----4----4------------------0-----0-0-| 
G|---4---4-------------------0---0-----0-| 
D|-4-----------------------4-----------4-| 
A|----------------------2--------------2-| 
E|-------------------0-----------------0-| 

FIM.