Pino Daniele

Allora Sì

Pino Daniele

tabs

by  BOMBAXXX

save to print version add songbook text version e-mail correct tuner
chordsukulelecavacokeyboardtabbassdrumsharmonicaflute Guitar Pro
close

there isn't a video lesson for this song

chords

Allora Sì

Year: 2002 - Album: Amore Senza Fine

	  		
ALLORA SÌ. (Pino Daniele) 

Intro 
           Amaj7sus2        Amaj7sus2 
    A             A                  Dsus2/F#   Dsus2/F 
e|-----0------0------0---------0--|------------------------------| 
B|--2------0------2------2--0-----|--3------3---3----------------| 
G|--2------1------2------2--1-----|--2----2-----2----------1-2-4-| 
D|--2------2------2------2--2-----|--0--0-------0------0-3-------| 
A|--0------0------0------0--0-----|----------------2-4-----------| 
E|--------------------------------|--2----------1----------------| 

           Amaj7sus2        Amaj7sus2 
    A             A                  Dsus2/F#   Dsus2/F 
e|-----0------0------0---------0--|--0----------0---------| 
B|--2------0------2------2--0-----|--3------3---3---3-----| 
G|--2------1------2------2--1-----|--2----2-----2--2---2--| 
D|--2------2------2------2--2-----|-----0---------0---0---| 
A|--0------0------0------0--0-----|-----------------------| 
E|--------------------------------|--2----------1---------| 00:12 

           Amaj7sus2        Amaj7sus2 
    A             A                  Dsus2/F#   Dsus2/F 
e|-----0------0------0---------0--|------------------------------| 
B|--2------0------2------2--0-----|--3------3---3----------------| 
G|--2------1------2------2--1-----|--2----2-----2----------1-2-4-| 
D|--2------2------2------2--2-----|--0--0-------0------0-3-------| 
A|--0------0------0------0--0-----|----------------2-4-----------| 
E|--------------------------------|--2----------1----------------| 


verse 1 
           Amaj7sus2        Amaj7sus2 
    A             A                  Dsus2/F#   Dsus2/F 
e|-----0------0------0---------0--|-------------------------------| 
B|--2------0------2------2--0-----|--3------3---3-----------------| 
G|--2------1------2------2--1-----|--2----2-----2-----------------| 
D|--2------2------2------2--2-----|--0--0-------0-----------------| 
A|--0------0------0------0--0-----|-------------------------------| 
E|--------------------------------|--2----------1-----------------| 00:25 

               Amaj7sus2        Amaj7sus2 
        A             A                 Dsus2/F#         Dsus2/F 
e|---------0------0------0---------0-|----------------------------| 
B|------2------0------2------2--0----|--3-------------3--3------3-| 
G|------2------1------2------2--1----|--2---------2------2----2---| 
D|------2------2------2------2--2----|--0-----0----------0--0-----| 
A|------0------0------0------0--0----|----------------------------| 
E|-----------------------------------|--2----------------1--------| 
  Lunedì                           mi lasciasti in quell'angolo così 

               Amaj7sus2        Amaj7sus2 
        A             A                    Dsus2/F#    Dsus2/F 
e|---------0------0------0----------0--|--------------------------| 
B|------2------0------2------2--0------|---3--------3--3------3---| 
G|------2------1------2------2--1------|---2-----2-----2----2-----| 
D|------2------2------2------2--2------|---0---0-------0--0-------| 
A|------0------0------0------0--0------|--------------------------| 
E|-------------------------------------|---2-----------1----------| 
                                 gli occhi fissi sulle tue parole 

   F#m          F#m7/E            Dm7 
a|-----------------------------|---------------------------| 
B|--2--------2---2-----------2-|--6--------6------6--------| 
G|--2-----2------2-------2-----|--------5--------5---------| 
D|--4--4---------2---2---------|-----7----------7----------| 
A|-----------------------------|--5------------5-----------| 
E|--2------------0-------------|---------------------------| 00:44 
                  non ti serbo rancore               ora 


verse 2 
           Amaj7sus2        Amaj7sus2 
    A             A                  Dsus2/F#   Dsus2/F 
e|-----0------0------0---------0--|------------------------------| 
B|--2------0------2------2--0-----|--3------3---3----------------| 
G|--2------1------2------2--1-----|--2----2-----2----------1-2-4-| 
D|--2------2------2------2--2-----|--0--0-------0------0-3-------| 
A|--0------0------0------0--0-----|----------------2-4-----------| 
E|--------------------------------|--2----------1----------------| 
                                                          Lune... 

           Amaj7sus2        Amaj7sus2 
    A             A                 Dsus2/F#       Dsus2/F 
e|-----0------0------0---------0-|----------------------------| 
B|--2------0------2------2--0----|--3--------3-----3--------3-| 
G|--2------1------2------2--1----|--2-----2--------2-----2----| 
D|--2------2------2------2--2----|--0--0-----------0--0-------| 
A|--0------0------0------0--0----|----------------------------| 
E|-------------------------------|--2--------------1----------| 
 ...dì                         mi tenevi stretto tra i libri di 

           Amaj7sus2        Amaj7sus2 
    A             A                    Dsus2/F#     Dsus2/F 
e|-----0------0------0----------0--|-----------------------------| 
B|--2------0------2------2--0------|---3------3-----3--------3---| 
G|--2------1------2------2--1------|---2----2-------2-----2------| 
D|--2------2------2------2--2------|---0--0---------0--0---------| 
A|--0------0------0------0--0------|-----------------------------| 
E|---------------------------------|---2------------1------------| 
 scuola                        fra i palazzi vecchi di questa ci... 

    F#m          F#m7/E          Dm7 
a|----------------------------|---------------------------| 
B|--2--------2---2----------2-|--6--------6------6--------| 
G|--2-----2------2------2-----|--------5--------5---------| 
D|--4--4---------2--2---------|-----7----------7----------| 
A|----------------------------|--5------------5-----------| 
E|--2------------0------------|---------------------------| 
 ...ttà             che mi dà emozione             ancoraaa... 

           Amaj7sus2        Amaj7sus2 
    A             A                  Dsus2/F#   Dsus2/F 
e|-----0------0------0---------0--|-----------------------| 
B|--2------0------2------2--0-----|--3------3---3---3-----| 
G|--2------1------2------2--1-----|--2----2-----2--2---2--| 
D|--2------2------2------2--2-----|--0--0-------0-0---0---| 
A|--0------0------0------0--0-----|-----------------------| 
E|--------------------------------|--2----------1---------|  
 ...aa mmmm 


Chorus 
           Dsus2       Dsus2#11             C#m7        F#m7 
e|---------0--------0--0-------0--------|---4--------4-------------| 
B|---------3-----3-----3-----3------3---|---5-----5-----2--------2-| 
G|---------2--2--------1---1------1-----|---4--4--------2-----2----| 
D|---------0-----------0----------------|---------------2--2-------| 
A|--------------------------------------|---4----------------------| 
E|--------------------------------------|---------------2----------| 
 E allora sì            che vale 'a pena e vivere e suffrì 

           Dsus2       Dsus2#11             C#m7         F#m7 
e|---------0--------0--0-------0--------|---4--------4--------------| 
B|---------3-----3-----3-----3------3---|---5-----5------2--------2-| 
G|---------2--2--------1---1------1-----|---4--4---------2-----2----| 
D|---------0-----------0----------------|----------------2--2-------| 
A|--------------------------------------|---4-----------------------| 
E|--------------------------------------|----------------2----------| 
 E allora sì            che vale 'a pena e crescere e capì 

            Bm7         C#m7            Bm7               C#m7 
e|-----------------------------------|-------------------------------| 
B|----------3--------3---5--------5--|--3--------3--------5--------5-| 
G|----------2-----2------4-----4-----|--2-----2-----------4-----4----| 
D|----------4--4---------6--6--------|--4--4--------------6--6-------| 
A|----------2------------4-----------|--2-----------------4----------| 
E|-----------------------------------|-------------------------------| 
 credere ancora all'amore      farsi portare un po' di più oppure 

   Bm7         Bbmaj7/F     Bbmaj7/E 
e|-----------------------------------| 
B|-3--------3--3------------3--------| 
G|-2-----2-----2------------2--------| 
D|-4--4--------3------------3--------| 
A|-2---------------------------------| 
E|-------------1------------0--------| 
 è tutta suggestione questa vita 

           Amaj7sus2        Amaj7sus2 
    A             A                  Dsus2/F#   Dsus2/F 
e|-----0------0------0---------0--|------------------------------| 
B|--2------0------2------2--0-----|--3------3---3----------------| 
G|--2------1------2------2--1-----|--2----2-----2----------1-2-4-| 
D|--2------2------2------2--2-----|--0--0-------0------0-3-------| 
A|--0------0------0------0--0-----|----------------2-4-----------| 
E|--------------------------------|--2----------1----------------| 
                             questa vita 


verse 3 
           Amaj7sus2        Amaj7sus2 
    A             A                  Dsus2/F#   Dsus2/F 
e|-----0------0------0---------0--|-----------------------| 
B|--2------0------2------2--0-----|--3------3---3---3-----| 
G|--2------1------2------2--1-----|--2----2-----2--2---2--| 
D|--2------2------2------2--2-----|--0--0-------0-0---0---| 
A|--0------0------0------0--0-----|-----------------------| 
E|--------------------------------|--2----------1---------| 
                                                      Lune... 

           Amaj7sus2        Amaj7sus2 
    A             A                  Dsus2/F#  Dsus2/F 
e|-----0------0------0---------0--|-----------------------| 
B|--2------0------2------2--0-----|--3------3--3--------3-| 
G|--2------1------2------2--1-----|--2----2----2-----2----| 
D|--2------2------2------2--2-----|--0--0------0--0-------| 
A|--0------0------0------0--0-----|-----------------------| 
E|--------------------------------|--2---------1----------| 
 ...dì                       cerco Enrico ma Enrico non si 

           Amaj7sus2        Amaj7sus2 
    A             A                    Dsus2/F#       Dsus2/F 
e|-----0------0------0----------0---|----------------------------| 
B|--2------0------2------2--0-------|--3--------3-----3--------3-| 
G|--2------1------2------2--1-------|--2-----2--------2-----2----| 
D|--2------2------2------2--2-------|--0--0-----------0--0-------| 
A|--0------0------0------0--0-------|----------------------------| 
E|----------------------------------|--2--------------1----------| 
  trova                      forse è a casa oppure in autostrada 

    F#m          F#m7/E            Dm7 
a|------------------------------|---------------------------| 
B|--2--------2---2----------2---|--6--------6------6--------| 
G|--2-----2------2------2-------|--------5--------5---------| 
D|--4--4---------2--2-----------|-----7----------7----------| 
A|------------------------------|--5------------5-----------| 
E|--2------------0--------------|---------------------------| 
  ancora          noi che corriamo troppo           in questa 

            Amaj7sus2        Amaj7sus2 
     A             A                  Dsus2/F#   Dsus2/F 
e|------0------0------0---------0--|-----------------------| 
B|---2------0------2------2--0-----|--3------3---3---3-----| 
G|---2------1------2------2--1-----|--2----2-----2--2---2--| 
D|---2------2------2------2--2-----|--0--0-------0-0---0---| 
A|---0------0------0------0--0-----|-----------------------| 
E|---------------------------------|--2----------1---------|  
 solitudine                     mmmmmmmmh 


Chorus 
           Dsus2       Dsus2#11             C#m7        F#m7 
e|---------0--------0--0--------0-------|---4--------4-------------| 
B|---------3-----3-----3------3-----3---|---5-----5-----2--------2-| 
G|---------2--2--------1----1-----1-----|---4--4--------2-----2----| 
D|---------0-----------0----------------|---------------2--2-------| 
A|--------------------------------------|---4----------------------| 
E|--------------------------------------|---------------2----------| 
 E allora sì            che vale 'a pena e vivere e suffrì 

           Dsus2       Dsus2#11             C#m7         F#m7 
e|---------0--------0--0-------0--------|---4--------4--------------| 
B|---------3-----3-----3-----3------3---|---5-----5------2--------2-| 
G|---------2--2--------1---1------1-----|---4--4---------2-----2----| 
D|---------0-----------0----------------|----------------2--2-------| 
A|--------------------------------------|---4-----------------------| 
E|--------------------------------------|----------------2----------| 
 E allora sì            che vale 'a pena e crescere e capì 

            Bm7          C#m7           Bm7               C#m7 
e|-----------------------------------|-------------------------------| 
B|----------3--------3---5--------5--|--3--------3--------5--------5-| 
G|----------2-----2------4-----4-----|--2-----2-----------4-----4----| 
D|----------4--4---------6--6--------|--4--4--------------6--6-------| 
A|----------2------------4-----------|--2-----------------4----------| 
E|-----------------------------------|-------------------------------| 
 credere ancora all'amore      farsi portare un po' di più oppure 

   Bm7         Bbmaj7/F     Bbmaj7/E 
e|-----------------------------------| 
B|-3--------3--3------------3--------| 
G|-2-----2-----2------------2--------| 
D|-4--4--------3------------3--------| 
A|-2---------------------------------| 
E|-------------1------------0--------| 
 è tutta suggestione questa vita 

           Amaj7sus2        Amaj7sus2 
    A             A                  Dsus2/F#   Dsus2/F 
e|-----0------0------0---------0--|--------------------------| 
B|--2------0------2------2--0-----|--3------3---3---3--------| 
G|--2------1------2------2--1-----|--2----2-----2--2---2-----| 
D|--2------2------2------2--2-----|--0--0-------0-0---0------| 
A|--0------0------0------0--0-----|--------------------------| 
E|--------------------------------|--2----------1------------| 
           questa vita         mmmmmmmmmmh 


Outro 
           Amaj7sus2        Amaj7sus2 
    A             A                  Dsus2/F#   Dsus2/F 
e|-----0------0------0---------0--|------------------------| 
B|--2------0------2------2--0-----|--3------3---3---3------| 
G|--2------1------2------2--1-----|--2----2-----2--2---2---| 
D|--2------2------2------2--2-----|--0--0-------0-0---0----| 
A|--0------0------0------0--0-----|------------------------| 
E|--------------------------------|--2----------1----------| 

           Amaj7sus2        Amaj7sus2 
    A             A                  Dsus2/F#   Dsus2/F                A 
e|-----0------0------0---------0--|------------------------------------5--| 
B|--2------0------2------2--0-----|--3------3---3------------2--3---5--5--| 
G|--2------1------2------2--1-----|--2----2-----2--------2-4-----------6--| 
D|--2------2------2------2--2-----|--0--0-------0--0-2-3---------------7--| 
A|--0------0------0------0--0-----|------------------------------------7--| 
E|--------------------------------|--2----------1----------------------5--| 
                                                 (Second guitar) 
                                                e|---------4-5--7---9--9--| 
                                                B|-------6-------------10-| 
                                                G|-4-6-7---------------9--| 
                                                D|---------------------11-| 
                                                A|---------------------0--| 
                                                E|------------------------| 
		  

Full key step upFull key step up
Half key step upHalf key step up
Half key step downHalf key step down
Full key step downFull key step down
hide glossary

See also:

tabs Pino Daniele - Quando tabs Pino Daniele - Allora Sì
e-chords

Other versions:

tabs Pino Daniele - Allora Sì
auto scroll beats size up size down change color hide chords drawings
tab show chords e-chords YouTube Clip e-chords hide all tabs e-chords go to top tab

share