Bad Religion

home > Bad Religion

You Tab

Bad Religion

Difficulty: nolevelnolevel

tuner correct add songbook print version text version save to e-mail
chordsukulelecavacokeyboardtabbassdrummharmonicsflute Guitar Pro
chords

You

Year: 1989 - Album: No Control

  		INTRO
------------------------------------------------------------------------------
------------------------------------------------------------------------------
------------------------------------------------------------------------------
------------------------------------------------------------------------------
-7-7-7-7-8-7-7-7-7-8-7-7-7-7-8-7-7-7-7-8-7-7-7-7-8-7-7-7-7-8-7----------------
-5-5-5-5-6-5-5-5-5-6-5-5-5-5-6-5-5-5-5-6-5-5-5-5-6-5-5-5-5-6-5----------------
                                                                              
There's a place where everyone...      It's made of candy...
------------------------------------------------------------------------------
------------------------------------------------------------------------------
------------------------------------------------------------------------------  2X
---10-5---------------------------------10-5-7-9------------------------------
-7-8--3-5-----------------------------7-8--3-5-7------------------------------
-5------3-----------------------------5---------------------------------------
                                                                              
Cuz there's no time for... 
------------------------------------------------------------------------------
------------------------------------------------------------------------------
------------------------------------------------------------------------------
-10-9-10---9-10-12-10---------------------------------------------------------
-8--7-8----7-8--10-8----------------------------------------------------------
------------------------------------------------------------------------------
                                                                              
You...               But I...  
------------------------------------------------------------------------------
------------------------------------------------------------------------------
------------------------------------------------------------------------------
---------------5-9---------------10-9-----------------------------------------
-7-3-5-7---7-3-3-7---7-3-5-7---7-8--7-----------------------------------------
-5-1-3-5---5-1-------5-1-3-5---5----------------------------------------------
                                                                              
Volta para INTRO e repete tudo
	  

Search Paypal
auto scroll beats size up size down change color hide chords drawings
tab show chords e-chords YouTube Clip e-chords hide all tabs e-chords go to top tab