Bad Religion

home > Bad Religion

Sorrow Tab

Bad Religion

Difficulty: BeginnerBeginner

tuner correct add songbook print version text version save to e-mail
chordsukulelecavacokeyboardtabbassdrummharmonicsflute Guitar Pro
chords

Sorrow

Year: 2002 - Album: New Maps of Hell

  		Introdução:

E----------------------------------------------------
B----------------------------------------------------
G----5--7--------------------------------------------
D-2--5--7--5-----------------------------------------
A-2--3--5--5-----------------------------------------
E-0--------3-----------------------------------------

"Father can you hear me?"
E----------------------------------------------------
B----------------------------------------------------
G---------------------5--9--7------------------------
D-5-------------------5--9--7-->---------------------
A-5->-----------------3--7--5------------------------
E-3--------------------------------------------------

"How have I let you down?"
E----------------------------------------------------
B----------------------------------------------------
G--7-------------------------------------------------
D--7->-----------------------------------------------
A--5-------------------------------------------------
E----------------------------------------------------

"I cursed the day.."
E----------------------------------------------------
B----------------------------------------------------
G-----5--7--9----------------------------------------
D--5--5--7--9->--------------------------------------
A--5--3--5--7----------------------------------------
E--3-------------------------------------------------

"And all the sorrow.."
E----------------------------------------------------
B----------------------------------------------------
G--9--5--7-------------------------------------------
D--9--5--7--5-----------------5-5--------------------
A--7--3--5--5-----------------5-5--------------------
E-----------3-----------------3-2--------------------

Daqui pra frente segue um troço assim até o refrão:

"Let me take you..."
E--------------------------------------------------------
B--------------------------------------------------------
G---5-7-----------5-9-7---------5-7-9-------9-5-7--------
D-2-5-7-5-------5-5-9-7->-----5-5-7-9->-----9-5-7-5------
A-2-3-5-5->-----5-3-7-5-------5-3-5-7-------7-3-5-5------
E-0-----3-------3-------------3-------------------3------

"Will you guild me now..."
E--------------------------------------------------------
B--------------------------------------------------------
G---5-7-----------5-9-7---------5-7-9-------9-5-7--------
D-2-5-7-5-------5-5-9-7->-----5-5-7-9->-----9-5-7--------
A-2-3-5-5->-----5-3-7-5-------5-3-5-7-------7-3-5--------
E-0-----3-------3-------------3-------------------3-2-3--

Refrão:

"There will be..."
E---------------------------------------------------------
B---------------------------------------------------------
G----5-----7-------5-----7-------5--------7---------------
D-2--5--5--7----2--5--5--7----2--5--5--2--7->-----5---\---
A-2--3--5--5----2--3--5--5----2--3--5--2--5-------5->-\---
E-0-----3---2^--0-----3---2^--0-----3--0----------3---\---

Bem depois do refrão tem otra parte igual as outras:

"When all the soldiers.."
E--------------------------------------------------------
B--------------------------------------------------------
G---5-7-----------5-9-7---------5-7-9-------9-5-7--------
D-2-5-7-5-------5-5-9-7->-----5-5-7-9->-----9-5-7--------
A-2-3-5-5->-----5-3-7-5-------5-3-5-7-------7-3-5--------
E-0-----3-------3-------------3-------------------3-2-3--


Depois vem o solo q eu acho que é mais ou menos assim:

E|-----------------------------------------------------------------------------------------------------|
A|-------------------------------------------------14--------------------------------------------------|
D|---------------------14--14-12--12-14---------------12-14-----14--12h14-12h14-12h14-12-14-12-12h14---|
G|-14b16-----14b16--12----12------------12-14-12------------12b----------------------------------------|
B|-12--------12----------------------------------------------------------------------------------------|
e|-----------------------------------------------------------------------------------------------------|

E|-----------------------------------------------------------------------------------------------------|
A|------------14---------------------------------------------------------------------------------------|
D|-12h14p12------12-14----14---------------------------------------------------------------------------|
G|---------------------12----12-14-12----12-12-12h14---------------------14-12-14-12-14b---------------|
B|----------------------------------------------------13-15-13-12-13p12--------------------------------|
e|-----------------------------------------------------------------------------------------------------|

E|-----------------------------------------------------------------------------------------------------|
A|-----------------------------------------------------------------------------------------------------|
D|----------------14-12--------------------------------------------------------------------------------|
G|-14b------14-12-------14b15b14r12-14p12--------------------------------------------------------------|
B|----12--12-------------------------------------------------------------------------------------------|
e|------12---------------------------------------------------------------------------------------------|

valieu!

Contribuição: Gabriel Cêra Boos([email protected])
	  

Search Paypal
auto scroll beats size up size down change color hide chords drawings
tab show chords e-chords YouTube Clip e-chords hide all tabs e-chords go to top tab