Bad Religion

home > Bad Religion

Sorrow Bass Tab

Bad Religion

Difficulty: IntermediateIntermediate

tuner correct add songbook print version text version save to e-mail
chordsukulelecavacokeyboardtabbassdrummharmonicsflute Guitar Pro
chords

Sorrow

Year: 2002 - Album: New Maps of Hell

  		

 
 
Album: Process of Belief
Instrument: Bass
Tuning: Standard
Tabbed by: Spidey255

Intro
G|----------------------------------------------|
D|----------------------------------------------|
A|---3-5------3---5~---3-5-7~-------------------|
E|-3-----3~-3---0----3--------33333333333-2-3-2-|

Verse
G|----------------------------------------|
D|----------------------------------------|
A|------3333-5555-------------------------|
E|-0000-----------333-2-333-2-333-2-333-2-|

G|------------------------------------------|
D|------------------------------------------|
E|------3333------555-3-555-3-555-3-5-3-2-0-|
A|-3333------0000---------------------------|

G|------------------------------------------|
D|------------------------------------------|
A|------3333-5555-777-5-777-5-777-5-7-5-3-2-|
E|-3333-------------------------------------|

G|--------------------------------------|
D|--------------------------------------|
A|------3333-5555-----------------------|
E|-0000-----------333-2-333-2-333-2-3-2-|

2nd time around play this as the 4th
G|----------------------|
D|----------------------|
A|------3333-5555---5---|
E|-0000-----------3---2-|

Chorus
G|--------------------|-----------------------------------------------------------|
D|--------------------|-----------------------------------------------------------|
A|------3333------5---|------3333------7777-555-3-555-3-555-3-5-3-22-0------------|
E|-0000------3333---2-|-0000------3333----------------------------------333333333-|

-verse
-chorus
-play the verse during the solo
-chorus

Ending Note: A|-7~-|

	  

Search Paypal
auto scroll beats size up size down change color hide chords drawings
tab show chords e-chords YouTube Clip e-chords hide all tabs e-chords go to top tab