Bad Religion

home > Bad Religion

Generator Tab

Bad Religion

Difficulty: IntermediateIntermediate

tuner correct add songbook print version text version save to e-mail
chordsukulelecavacokeyboardtabbassdrummharmonicsflute Guitar Pro
chords

Generator

Year: 1992 - Album: Generator

  		Versão 1
--------
Transcrit Par: B.Lamoureux
----------------------------------------------------------------------
I juste wrote the chord, find the rhytm by yourself.... if someone   
had tabbed the solo please email me it!                              
----------------------------------------------------------------------
                                                                      
Like a rock  Like a planet  Like a fucking atom bomb                  
                                                                      
|-0------------1--------------3------------------------------------------
|-1------------1--------------3-------------------------5--4-------------
|-2------------2--------------0-------------------------5--4-------------
|-2------------3--------------0-------------------------5--4-------------
|-0------------3--------------x-------------------------3--2-------------
|--------------1--------------3------------------------------------------


                                                                      
           I've seen it...                                            
                                                                      
|-0--1--3--0-|-0-0-0--1-0-1--0-0-0--3-3-3--|----------------|------------
|-1--1--3--0-|-1-0-1--1-0-1--1-0-1--3-3-3--|-------------4--|------------
|-2--2--0--1-|-2-2-2--2-2-2--0-0-0--0-2-0--|-2-3-5-3-5-2-3--|------------
|-2--3--0--2-|-2-2-2--3-3-3--2-2-2--0-0-0--|-2-3-5-3-5-2-1--|------------
|-0--3--x--2-|-0-0-0--3-3-3--3-3-3--x-x-x--|-0-1-3-1-3-0(1)-|------------
|----1--3--0-|--------1-1-1---------3-3-3--|----------------|------------


                                                                      
oh yeah..                                                             
                                                                      
|-0--1--3--------0--1--3--0--|-------------------------------------------
|-1--1--3--5--4--1--1--3--0--|-------------------------------------------
|-2--2--0--5--4--2--2--0--1--|-------------------------------------------
|-2--3--0--5--4--2--3--0--2--|-------------------------------------------
|-0--3--x--3--2--0--3--x--2--|-------------------------------------------
|----1--3-----------1--3--0--|-------------------------------------------


Versão 2
--------
----------------------------------------------------------------------------------
Álbum: Original do álbum Generator, apareceu na coletânea All Ages e no cd ao vivo 
Tested.
Tablatura by Mamor e-mail: [email protected]

Acordes:
   A   F   E   C   G
e|---|---|---|---|---|
B|---|---|---|---|---|
G|---|---|-1-|-5-|---|
D|-7-|-3-|-2-|-5-|-5-|
A|-7-|-3-|-2-|-3-|-5-|
E|-5-|-1-|---|---|-3-|

A           F
Like a rock, like a planet
G		     C
Like a fucking atom bomb
        A                      F
I´ll remain unpertubed by the joy
      G				  E
There are encounter everywhere I turn 
		  A
I´ve seen it all along
		F     
In books in magazines
		     C
Like a trick before die
		   G
Like a pornographic sea
			     A
There´s a flower behind the window
			 F
There´s an ugly laughing man
		      C
Like a humminbird in silence
		      G
Like the blood on my door
	      A
It´s the generator

Riff 1:
e|-----------------------------|	   
B|-----------------------------|          
G|---------------------------8-|	   
D|-7-7-7-7-7-----------7-7-7-8-| 2 vezes   
A|-7-7-7-7-7--1-3-1-3--7-7-7-6-|           
E|-5-5-5-5-5-----------5-5-5---|           

e|--------------------------------|
B|--------------------------------|
G|------------------------------8-|
D|-6--7-7-7-7-7-----------7-7-7-8-|
A|-6--7-7-7-7-7--1-3-1-3--7-7-7-6-|
E|-4--5-5-5-5-5-----------5-5-5---|

e|-------------|
B|-------------|
G|-(8)-(8)-(8)-| - Toca junto com a linha do baixo e depois fica fazendo
D|-(8)-(8)-(8)-|   graça em D#, se vc quisé naum precisa toca essa parte.
A|-(6)-(6)-(6)-|
E|-------------| 

A       F	G		       C
Oh yeah, Oh yeah like the blood on my door
A		  F               G               E
Wash me clean and I´ll run run until I reach the shore
		  A
I´ve know it all along
		      F
Like the bone under my skin
		  C
Like actors in a photograpic
		  G
Like paper in the wind
			A
There´s a hammer by the window
		      F
There´s a knife on the floor
		  C
Like turbines in darkness
    		    G
Like the blood on my door
	     A
It´s the generator (REPETE RIFF 1)

A       F	G		       C
Oh yeah, Oh yeah like the blood on my door
A		  F               G               E    (A F C G)
Wash me clean and I´ll run run until I reach the shore

(A F C G)X2
OOOOO, OOOO... 

-----------------------------------------------------------------------------------------
Marcos Samerson ([email protected] - [email protected]!! Rock icq:63689349) www.samrock.hpg.com.br
	  

Full key step upFull key step up
Half key step upHalf key step up
Half key step downHalf key step down
Full key step downFull key step down
Search Paypal
auto scroll beats size up size down change color hide chords drawings
tab show chords e-chords YouTube Clip e-chords hide all tabs e-chords go to top tab