Bad Religion

home > Bad Religion

Broken Tab

Bad Religion

Difficulty: nolevelnolevel

by 4nub1s

tuner correct add songbook print version text version save to e-mail
chordsukulelecavacokeyboardtabbassdrummharmonicsflute Guitar Pro
chords

Broken

Year: 2002 - Album: The Process of Belief

  		Afinação : E 
 
--------------------------------------------------------------------------------- 
 
Intro 
 
E--------------------------- 
B-----(várias vezes)-------- 
G-------7---77-------------- 
D-------6---66-------------- 
A-6/7-7-7-7----------------- 
E--------------------------- 
 
Refrão 
 
E---------------------------------------- 
B(-----3xs------)-(ouça p/ pegar o tempo) 
G-------------7-------77----77----------- 
D-7---5---3---7-----6-66--6-66----------- 
A-7---5---3---5---777777777777----------- 
E-5---3---1------------------------------ 
 
Verso  
 
Acústico 
 
Am G Am E Am G F D 
 
Guitarra 
  (0:24)e(0:32*) 
E--------------------------- 
B(---2xs----)--------------- 
G-----7--------------------- 
D-3---7--------------------- 
A-3---5---3~~~-----2-0------ 
E-1-------------------1-0--- 
*só o segundo acorde nessa parte 
 
Refrão 
 
Verso 
 
Refrão 
 
Ponte 
guitarra1 
E------------------ 
B------------------ 
G-----7------------ 
D-3---7---3---2---- 
A-3---5---3---2---- 
E-1-------1---0---- 
guitarra2 (embolado d+, não dá pra ouvir direito) 
E-0------------- 
B--1------------ 
G---2----------- 
D--------------- 
A--------------- 
E--------------- 
 
Solo (a base do solo é o Refrão) 
   
E(---------2xs-------)---------------------------- 
B--------8-8b10----------------------------------- 
G-9-7-9---------9--------7-9--------7-9----ha----- 
D----------------------------9-9b10-----9-9b10---- 
A------------------------------------------------- 
E----------------------------------------------7-- 
 
Verso 
 
Acústico (só violão 3xs) 
 
Guitarra  
 
E------------------------- 
B------------------------- 
G---------10---7---5---2-- 
D-7---5---10---7---5---2-- 
A-7---5---8----5---3---0-- 
E-5---3------------------- 
 
Refrão Final e termina com 
 
E---- 
B---- 
G---- 
D-7-- 
A-7-- 
E-5-- 
 
 

	  

Search Paypal
auto scroll beats size up size down change color hide chords drawings
tab show chords e-chords YouTube Clip e-chords hide all tabs e-chords go to top tab