Bad Religion

home > Bad Religion

Broken Bass Tab

Bad Religion

Difficulty: nolevelnolevel

tuner correct add songbook print version text version save to e-mail
chordsukulelecavacokeyboardtabbassdrummharmonicsflute Guitar Pro
chords

Broken

Year: 2002 - Album: The Process of Belief

  		

 
 
Album: Process Of Belief
Instrument: Bass
Tuning: Standard
Tabbed By: Spidey255

"Badreligion's" tab was accurate, but it was not precise. He missed some fills and his bridge was way off. Good job to you, but work a little harder. It seems you made up the bridge yourself. 

It starts out on the chorus
Chorus
G|----------------------|----------------------------|
D|----------------------|----------------------------|
A|-------------3-55-3-2-|-5-7-5-77-5-7-5-7-5-7-5-3-2-|
E|-555-333-111----------|----------------------------|

Verse
G|----------------------------------------|
D|----------------------------------------|
A|-------------------------------3-55-3-2-|
E|-555-333-5555-000-5555-333-111----------|

-chorus
-verse
-chorus

Bridge
G|-------------------------------------------------------------|
D|-------------------------/12-10------------------------------|
A|--------------------/8-5--------12-10------------------------|
E|-111-0-111-0-11-0-1-------------------13-12-13-12-10-9-10-12-|

G|------------------------------------------|
D|------------------------------------------|
A|--------------------------/7-5-7-10-12-12-|
E|-111-0-111-0-11-3-0000000-----------------|

-chorus during solo
-verse
-chorus

	  

Search Paypal
auto scroll beats size up size down change color hide chords drawings
tab show chords e-chords YouTube Clip e-chords hide all tabs e-chords go to top tab