Bad Books

It Never Stops

Bad Books

tabs

by  VSWORLD

save to print version add songbook text version e-mail correct tuner
chordsukulelecavacokeyboardtabbassdrumsharmonicaflute Guitar Pro
close

there isn't a video lesson for this song

chords

It Never Stops

	  		

Verse 1: 
   G       G       C       G         G 
e|-----------------------------------3--------| 
B|--------------------------------------------| 
G|--------------------------------------------| 
D|-5-------5-------10-------5--------5--------| 
A|-5-------5-------10-------5--------5--------| 
E|-3-------3-------/8------/3--------3--------| 
"McCarren park..."                  "Folded arms..." 

  G 
e|-------------------------------------------------| 
B|-------------------------------------------------| 
G|-------------------------------------------------| 
D|-00-000-000-000-000-000-000-000-000-000-000-000--| 
A|-22-222-222-222-222-222-222-222-222-222-222-222--| 
E|-------------------------------------------------| 
                      "Speedy eyes..."  
    C 
e|----------------------------------| 
B|----------------------------------| 
G|----------------------------------| 
D|-255-555-555-555-555-555-555-555--| 
A|-077-777-777-777-777-777-777-777--| 
E|----------------------------------| 
      "truth cut with..." 
    G 
e|------------------------------------| 
B|------------------------------------| 
G|------------------------------------| 
D|-500-000-000-000-000-000-000-00000--| 
A|-722-222-222-222-222-222-222-22222--| 
E|-----------------------------33333--| 
      "Cash baggies..."  

Chorus 1: 
Em          Bm 
And I know, you know 
C 
I want to love you 
      G 
But I can?t let go 
C               D 
Honey, it never stops 

No it never stops 

Chorus Lead Guitar:  
e|-----7-------7-------8-------3-------8-----8------12p10------10-------10-| 
B|---8---8---7---7---8---8---3---3---8---8------10-------10----------------| 
G|-9-------7-------9-------4-------9-------9---8-----------11----11-11h12--| 
D|-------------------------------------------------------------------------| 
A|-------------------------------------------------------------------------| 
E|-------------------------------------------------------------------------| 

Post-Chorus: 
    C 
e|-----------------------------------| 
B|-----------------------------------| 
G|-----------------------------------| 
D|-55-555-555-555-555-555-555-55555--| 
A|-77-777-777-777-777-777-777-77777--| 
E|-----------------------------------| 
   "No it never stops" 

Post-Chorus Lead Guitar: 
e|-----------------------| 
B|--8s5-------5s3--------| 
G|-----------------------| 
D|-----------------------| 
A|-----------------------| 
E|-----------------------| 

Verse 2 
  N.C. 
e|-------------------------------------------------| 
B|-------------------------------------------------| 
G|-------------------------------------------------| 
D|-------------------------------------------------| 
A|-------------------------------------------------| 
E|-------------------------------------------------| 
   "McCarren park when the culture crashed down"  

  G 
e|-------------------------------------------------| 
B|-------------------------------------------------| 
G|-------------------------------------------------| 
D|-00-000-000-000-000-000-000-000-000-000-000-000--| 
A|-22-222-222-222-222-222-222-222-222-222-222-222--| 
E|-------------------------------------------------| 
                    "Copy after copy..."  
    C 
e|----------------------------------| 
B|----------------------------------| 
G|----------------------------------| 
D|-255-555-555-555-555-555-555-555--| 
A|-077-777-777-777-777-777-777-777--| 
E|----------------------------------| 
      "Bet the future..." 
    G 
e|------------------------------------| 
B|------------------------------------| 
G|------------------------------------| 
D|-500-000-000-000-000-000-000-00000--| 
A|-722-222-222-222-222-222-222-22222--| 
E|-----------------------------33333--| 
      "I kept it secret..."  

Verse 2 Lead Guitar: 
e|----7-7p5-5p3-3p2-0h2-0h2-3----7p5-5p3-3p2-0h2-0h2-12--| 
B|-5s8---------------------------------------------------| 
G|-------------------------------------------------------| 
D|-------------------------------------------------------| 
A|-------------------------------------------------------| 
E|-------------------------------------------------------| 

e|-12p10-10p8-8p7-5h7-5h7-7------7-----| 
B|------------------------8----5s8-----| 
G|-------------------------------------| 
D|-------------------------------------| 
A|-------------------------------------| 
E|-------------------------------------| 

Chorus 2: 
Em            Bm 
The days split to two sides 
C 
Flipped a quarter 
      G 
And said I can?t decide 
C               D 
Honey, it never stops 
Em                Bm 
The leaves laughed, the bed burned 
C 
I know I want you,  
        G 
but I?m waiting my turn 
C              D 
Honey it never stops 
             C 
No it never stops 
             G 
No it never stops 

Chorus Lead Guitar (x2):  
e|-----7-------7-------8-------3-------8-----8------12p10------10-------10-| 
B|---8---8---7---7---8---8---3---3---8---8------10-------10----------------| 
G|-9-------7-------9-------4-------9-------9---8-----------11----11-11h12--| 
D|-------------------------------------------------------------------------| 
A|-------------------------------------------------------------------------| 
E|-------------------------------------------------------------------------| 

Post-Chorus: 
    C 
e|----------------------------------------| 
B|----------------------------------------| 
G|---------------------------------0~~----| 
D|---------------------------------0~~----| 
A|-7-7-7-7-7-7-7-7-2-2-2-2-2-2-2-2-2~~----| 
E|-8-8-8-8-8-8-8-8-3-3-3-3-3-3-3-3-3~~----| 
   "No it never stops..." 

Verse 3: 
  N.C. 
e|-------------------------------------------------| 
B|-------------------------------------------------| 
G|-------------------------------------------------| 
D|-------------------------------------------------| 
A|-------------------------------------------------| 
E|-------------------------------------------------| 
   "McCarren park when the beauty bled out"  

  G 
e|-33-333-333-333-333-333-333-333-333-333-333-333--| 
B|-33-333-333-333-333-333-333-333-333-333-333-333--| 
G|-00-000-000-000-000-000-000-000-000-000-000-000--| 
D|-00-000-000-000-000-000-000-000-000-000-000-000--| 
A|-22-222-222-222-222-222-222-222-222-222-222-222--| 
E|-33-333-333-333-333-333-333-333-333-333-333-333--| 
                    "Twenty years..."  
    C 
e|-300-000-000-000-000-000-000-000--| 
B|-311-111-111-111-111-111-111-111--| 
G|-000-000-000-000-000-000-000-000--| 
D|-022-222-222-222-222-222-222-222--| 
A|-233-333-333-333-333-333-333-333--| 
E|-3--------------------------------| 
      "You held my hand..." 
    G 
e|-033-333-333-333-333-333-333-33333--| 
B|-133-333-333-333-333-333-333-33333--| 
G|-000-000-000-000-000-000-000-00000--| 
D|-200-000-000-000-000-000-000-00000--| 
A|-322-222-222-222-222-222-222-22222--| 
E|--33-333-333-333-333-333-333-33333--| 
      "Said I'd never..."  

Chorus 3: 
Em        Bm 
And I knew right there 
C 
I could have you  
        G 
but I?d have to share 
C               D 
Honey, it never stops 
Em         Bm 
So we slept the sun left 
C 
I dreamt nothingness  
   G 
in shades of red  
C              D 
Honey it never stops 
             C 
No it never stops 

Chorus Lead Guitar (x2):  
e|-----7-------7-------8-------3-------8-----8------12p10------10-------10-| 
B|---8---8---7---7---8---8---3---3---8---8------10-------10----------------| 
G|-9-------7-------9-------4-------9-------9---8-----------11----11-11h12--| 
D|-------------------------------------------------------------------------| 
A|-------------------------------------------------------------------------| 
E|-------------------------------------------------------------------------| 

Post-Chorus 3: 
e|------------------------------------------------------------------| 
B|------------------------------------------------------------------| 
G|------------------------------------------------------------------| 
D|-55-555-555-555-500-000-044-444-355-555-555-555-500-000-044-444---| 
A|-77-777-777-777-722-222-255-555-577-777-777-777-722-222-255-555---| 
E|------------------------------------------------------------------| 
   "No it never stops...." 

e|-------------------| 
B|-------------------| 
G|-------------------| 
D|-55-555-555-5555---| 
A|-77-777-777-7777---| 
E|-------------------| 
   "No it never stops." 
		  

Full key step upFull key step up
Half key step upHalf key step up
Half key step downHalf key step down
Full key step downFull key step down
hide glossary

See also:

tabs Michael Jackson - Heal The World tabs Black Eyed Peas - Pump it (solo) tabs Lindsay Lohan - Take me away tabs Decode Acoustic - Paramore tabs Reo Speedwagon - Take it on the Run tabs Justin Timberlake - Rock Your Body
e-chords

Other versions:

tabs Bad Books - It Never Stops
auto scroll beats size up size down change color hide chords drawings
tab show chords e-chords YouTube Clip e-chords hide all tabs e-chords go to top tab

share