Audioslave

home > Audioslave

The Curse Tab

Audioslave

Difficulty: nolevelnolevel

by eduardo%5Flyvio

tuner correct add songbook print version text version save to e-mail
chordsukulelecavacokeyboardtabbassdrumsharmonicsflute Guitar Pro
chords

The Curse

  		p:Pull-off 
h:Hammer-on 
TrÊmUlO, Oitavador e Chorus no solo. 
 
Nota: Em algumas partes em que é tocado o acorde de Mi maior existe uma 2º guitarra que toca isto: 
 
e|-0-----0-- 
B|----0----- 
G|---------- 
D|---------- 
A|---------- 
E|---------- 
 
Nota 2: Este é outro dedilhado que você vai ouvir em certas partes da música. Neste use o TrÊmUlO. 
 
e|------------------------------------- 
B|------------------------------------- 
G|----------2-------------------------- 
D|-2------2---2-4---------------------- 
A|-----------------------4---3------0-- 
E|---------------------4---4----------- 
 
Intro: E, A, E 
 
E           A              E 
  Help me I don't know I'm doin 
            A              E 
  Help me before I fall to ruin 
B            A     E 
  And if I'm blind, I will lead you on 
B             A         C#m              B 
  Come follow me now, before our time is gone 
A                                C#m 
  And as you?re laughing at this fool tonight 
         C                           A 
  Let me rid myself of any line that I might use to  
  C 
  trip you up 
E                       C#m                  C 
  And as I?m howling at moonlight, don?t you kid  
                           B 
  yourself, I will be your luck  
              E   A  E                   A  E 
  Never be your curse never be your curse 
            A                   E 
  Help me I don?t know what I?m saying 
                 A               E 
  Sometimes this tongue can be betraying 
B            A     E 
  And if I?m wrong, is that such a crime 
B            A             C#m             B 
  And if you want, you can set my words to right 
A                                   C#m 
  So and as you?re laughing at this fool tonight 
         C                           A            
  Let me rid myself of any line that I might use to  
  C 
  trip you up 
E                       C#m                  C 
  And as I?m howling at moonlight, don?t you kid  
                           B 
  yourself, I will be your luck 
F#            A              E 
  And if your eyes forget to well 
F#            A              E 
  And if your lies forget to tell 
B            A               C#m 
  And if our paths forget to cross 
     B                   C#m 
  It doesn?t mean you?re lost 
 
Solo: 
 
e|------7--4--5-4-2-4--2-0----------7--4--5-4-2-0- 
B|----5--------------------6p4-6--5--------------- 
G|-6---------------------------------------------- 
D|------------------------------------------------ 
A|------------------------------------------------ 
E|------------------------------------------------ 
 
e|------------7--4--5-4-5-7-5-4-5-7-5-4-5-7-5-4-2-0- 
B|-----5----5--------------------------------------- 
G|-4h6---6------------------------------------------ 
D|-------------------------------------------------- 
A|-------------------------------------------------- 
E|-------------------------------------------------- 
 
e|------7--4----------------- 
B|----5---------------------- 
G|-6------------------------- 
D|--------------------------- 
A|--------------------------- 
E|--------------------------- 
 
A                                   C#m 
  So and as you?re laughing at this fool tonight 
         C                           A     
  Let me rid myself of any line that I might use to  
  C 
  trip you up 
E                       C#m                  C 
  And as I?m howling at moonlight, don?t you kid  
                             A 
  yourself, cause even at my worst 
E                            C#m 
  If you?re laughing at this fool tonight 
         C                           A          
  Let me rid myself of any line that I might use to  
  C 
  trip you up 
E                       C#m                  C 
  And as I?m howling at moonlight, don?t you kid  
                           A 
  yourself, I will be your luck 
        Am         C 
  Cause even at my worst 
                 B 
  I will be your luck 
                E 
  Never be your curse 
 
 

	  

Full key step upFull key step up
Half key step upHalf key step up
Half key step downHalf key step down
Full key step downFull key step down
Search Paypal
auto scroll beats size up size down change color hide chords drawings
tab show chords e-chords YouTube Clip e-chords hide all tabs e-chords go to top tab