Anthrax

In The End Tab

Anthrax

Difficulty: IntermediateIntermediate

by renejunior

tuner correct add songbook print version text version save to e-mail
chordsukulelecavacokeyboardtabbassdrumsharmonicsflute Guitar Pro
close

there isn't a video lesson for this song

request
chords

In The End

  		
Drop C# Tuning 


0:00 - 0:09 
|-----------------------------------------------------| 
|-----------------------------------------------------| 
|-----------------------------------------------------| 
|-----------------------------------------------------| 
|-----------------------------------------------------| 
|-----------------------------------------------------| 
0:10 - 0:20 
|-----------------------------------------------------| 
|-----------------------------------------------------| 
|-----------------------------------------------------| 
|-----------------------------------------------------| X4 
|-----------------------------------------------------| 
|-0h12h15--0-0--0h12h15--0--0h12h15-0h12h15--0--------| 
           + +           +                   + 
0:21 - 1:03 
|-----------------------------------------------------| 
|-----------------------------------------------------| 
|-------11~---12~-14----7---7-7--7/9/7--7--7~---------| 
|-----------------------------------------------------|*Continued 
|--0~---9~----10~-12----5---5-5--5/7/5--5--5~---------| 
|--0~-------------------------------------------------| 

|--------------------------------------------| 
|--------------------------------------------| 
|---7---7--7-7--7---7-7---7--7-7--7---7------| 
|---7---7--7-7--7---7-6---6--6-6--6---6------| X2 
|---5---5--5-5--5---5-5---5--5-5--5---5------| 
|---0---0--0-0--0---0-0---0--0-0--0---0------| 

1:04 - 1:13 
|--------------------------------------| 
|--------------------------------------| 
|--------------------------------------| 
|--------------------------------------| 
|----------0---------------------------| 
|-0-0-3-0--0--0-0-3-0---0-0-3-0-0-3-0--| 
  + + + +  +  + + + +   + + + + + + + 
|--------------------------------------| 
|--------------------------------------| 
|--------------------------------------| 
|--------------------------------------| 
|----------0---------------------------| 
|-0-0-3-0--0--0-0-3-0---0-0-3-0-0-3-0--| 
  + + + +  +  + + + +   + + + + + + + 
|--------------------------------------| 
|--------------------------------------| 
|--------------------------------------| 
|--------------------------------------| 
|----------0---------------------------| 
|-0-0-3-0--0--0-0-3-0---0-0-3-0-0-3-0--| 
  + + + +  +  + + + +   + + + + + + + 
|---------------------------------| 
|---------------------------------| 
|---------------------------------| 
|---------------------------------| 
|----------0---0-3-0------X-X-X-X-| 
|-0-0-3-0--0---0-3-0------X-X-X-X-| 
  + + + +  +   + + +      + + + + 
   
1:14 - 1:26 
Lone Star was Dark Tonight 
|--------------------------------------| 
|--------------------------------------| 
|--------------------------------------| 
|--------------------------------------| 
|----------0---------------------------| 
|-0-0-3-0--0--0-0-3-0---0-0-3-0-0-3-0--| 
  + + + +  +  + + + +   + + + + + + + 

Our Diamond Shined so Bright 
|--------------------------------------| 
|--------------------------------------| 
|--------------------------------------| 
|--------------------------------------| 
|----------0---------------------------| 
|-0-0-3-0--0--0-0-3-0---0-0-3-0-0-3-0--| 
  + + + +  +  + + + +   + + + + + + + 

I watched it go 
|--------------------------------------| 
|--------------------------------------| 
|--------------------------------------| 
|--------------------------------------| 
|----------0---------------------------| 
|-0-0-3-0--0--0-0-3-0---0-0-3-0-0-3-0--| 
  + + + +  +  + + + +   + + + + + + + 

Further than he Ever Dreamed 
|--------------------------------------| 
|--------------------------------------| 
|--------------------------------------| 
|--------------------------------------| 
|----------0---------------------------| 
|-0-0-3-0--0--0-0-3-0---0-0-3-0-0-3-0--| 
  + + + +  +  + + + +   + + + + + + + 

1:26 - 1:44 
I can't take it 
|---------------------------------| 
|---------------------------------| 
|---------------------------------| 
|---------------------------------| 
|-------5-7----------5-7------2-5-| 
|-0-2-5--------0-2-5--------5-----| 
  + + +        +             

No matter how I try 
I can't stop asking why 
'Cause something's broken 
Scared it breaks my heart 
|--------------------------------------| 
|--------------------------------------| 
|--------------------------------------| 
|--------------------------------------|X4 
|----------0---------------------------| 
|-0-0-3-0--0--0-0-3-0---0-0-3-0-0-3-0--| 
  + + + +  +  + + + +   + + + + + + + 

I won't take it 
|---------------------------------| 
|---------------------------------| 
|---------------------------------| 
|---------------------------------| 
|-------5-7----------5-7------2-5-| 
|-0-2-5--------0-2-5--------5-----| 
  + + +        +             
I Can't break it 
|--------------| 
|--------------| 
|--------------| 
|--------------| 
|----3~--2~----| 
|----3~--2~----| 

1:45 - 2:17 
Chorus 
"In The End..." 
|------------------------------------| 
|------------------------------------| 
|------------------------------------| 
|------------------------------------| 
|--5-5-5-5-5-5-5-5-5-5-5-5-5-5-3-5---| 
|--5-5-5-5-5-5-5-5-5-5-5-5-5-5-3-5---| 

"But it's already over..." 
|-------------------------------------| 
|-------------------------------------| 
|-----------11--12--14----------------| 
|-------------------------------------| 
|--0--0--0--9---10--12---5-3-0--------| 
|--0--0--0---------------5-3-0--------| 

"In The End!..."                    "Sun Goes down on Me!" 
|-----------------------------------------------------| 
|-----------------------------------------------------| 
|-----------------------------------------------------| 
|-----------------------------------------------------| 
|-8-8-8-8--8-8--8-8-8-8--8-8--5-5-5-5--5-5----3~-2~---| 
|-8-8-8-8--8-8--8-8-8-8--8-8--5-5-5-5--5-5----3~-2~---| 

|-----------------------------------------------------| 
|-----------------------------------------------------| 
|-----------------------------------------------------| 
|-----------------------------------------------------| X4 
|-----------------------------------------------------| 
|-0h12h15--0-0--0h12h15--0--0h12h15-0h12h15--0--------| 


2:18 - 2:39 
And When the Greatest Falls 
|--------------------------------------| 
|--------------------------------------| 
|--------------------------------------| 
|--------------------------------------| 
|----------0---------------------------| 
|-0-0-3-0--0--0-0-3-0---0-0-3-0-0-3-0--| 
  + + + +  +  + + + +   + + + + + + + 
Heaven and Hell will call 
|--------------------------------------| 
|--------------------------------------| 
|--------------------------------------| 
|--------------------------------------| 
|----------0---------------------------| 
|-0-0-3-0--0--0-0-3-0---0-0-3-0-0-3-0--| 
  + + + +  +  + + + +   + + + + + + + 

Stand up and Fight 
|--------------------------------------| 
|--------------------------------------| 
|--------------------------------------| 
|--------------------------------------| 
|----------0---------------------------| 
|-0-0-3-0--0--0-0-3-0---0-0-3-0-0-3-0--| 
  + + + +  +  + + + +   + + + + + + + 

On and On his Memory screams 
|--------------------------------------| 
|--------------------------------------| 
|--------------------------------------| 
|--------------------------------------| 
|----------0---------------------------| 
|-0-0-3-0--0--0-0-3-0---0-0-3-0-0-3-0--| 
  + + + +  +  + + + +   + + + + + + + 

I can't take it 
|---------------------------------| 
|---------------------------------| 
|---------------------------------| 
|---------------------------------| 
|-------5-7----------5-7------2-5-| 
|-0-2-5--------0-2-5--------5-----| 
  + + +        +             

Stand up, and Fight Withdrawal 
|--------------------------------------| 
|--------------------------------------| 
|--------------------------------------| 
|--------------------------------------|X4 
|----------0---------------------------| 
|-0-0-3-0--0--0-0-3-0---0-0-3-0-0-3-0--| 
  + + + +  +  + + + +   + + + + + + + 

I won't take it 
|---------------------------------| 
|---------------------------------| 
|---------------------------------| 
|---------------------------------| 
|-------5-7----------5-7------2-5-| 
|-0-2-5--------0-2-5--------5-----| 
  + + +        +             
I Can't break it 
|--------------| 
|--------------| 
|--------------| 
|--------------| 
|----3~--2~----| 
|----3~--2~----| 

2:40 - 3:22 
Chorus 
"In The End..." 
|------------------------------------| 
|------------------------------------| 
|------------------------------------| 
|------------------------------------| 
|--5-5-5-5-5-5-5-5-5-5-5-5-5-5-3-5---| 
|--5-5-5-5-5-5-5-5-5-5-5-5-5-5-3-5---| 

"But it's already over..." 
|-------------------------------------| 
|-------------------------------------| 
|-----------11--12--14----------------| 
|-------------------------------------| 
|--0--0--0--9---10--12---5-3-0--------| 
|--0--0--0---------------5-3-0--------| 

"In The End!..."                  "When the Sun goes down..."   
|-----------------------------------------------------| 
|-----------------------------------------------------| 
|-----------------------------------------------------| 
|-----------------------------------------------------| 
|-8-8-8-8--8-8--8-8-8-8--8-8--5-5-5-5--5-5----3~-2~---| 
|-8-8-8-8--8-8--8-8-8-8--8-8--5-5-5-5--5-5----3~-2~---| 

"In The End..." 
|------------------------------------| 
|------------------------------------| 
|------------------------------------| 
|------------------------------------| 
|--5-5-5-5-5-5-5-5-5-5-5-5-5-5-3-5---| 
|--5-5-5-5-5-5-5-5-5-5-5-5-5-5-3-5---| 

"And I'm taking this over!..." 
|-------------------------------------| 
|-------------------------------------| 
|-----------11--12--14----------------| 
|-------------------------------------| 
|--0--0--0--9---10--12---5-3-0--------| 
|--0--0--0---------------5-3-0--------| 

"In The End!..."                 "Sun Goes down on Me"    
|-----------------------------------------------------| 
|-----------------------------------------------------| 
|-----------------------------------------------------| 
|-----------------------------------------------------| 
|-8-8-8-8--8-8--8-8-8-8--8-8--5-5-5-5--5-5----3~-2~---| 
|-8-8-8-8--8-8--8-8-8-8--8-8--5-5-5-5--5-5----3~-2~---| 

******************TURNING POINT OF THE SONG************************ 


|-----------------------------------------------------| 
|-----------------------------------------------------| 
|-----------------------------------------------------| 
|-----------------------------------------------------| X3 
|-----------------------------------------------------| 
|-0h12h15--0-0--0h12h15--0--0h12h15-0h12h15--0--------| 
           + +           +                   + 

|-------------------------------| 
|-------------------------------| 
|-------------------------------| 
|-------------------------------| 
|-0-1-2-3-4-5-3-4-5-6-7-8-0~~---| 
|-0-1-2-3-4-5-3-4-5-6-7-8-0~~---| 
  + + + + + + + + + + + + + 
|----------------------------------------| 
|----------------------------------------| 
|----------------------------------------| 
|----------------------------------------| 
|----------------------------------------| 
|--PICKSCRAPE-DOWN-THE-ENTIRE-FRETBOARD--| 

|---------------------------------------------------------| 
|---------------------------------------------------------| 
|---------------------------------------------------------| 
|---------------------------------------------------------|X2 
|---------------------------------------------------------| 
|-0h12h15-0-0-0-0-0-0-0h12h15-0-0-0-0h12h15-0h12h15-0-0-0-| 
          + + + + + +         + + +                 + + + 

3:48 - 

|---------------------------------------------------------| 
|---------------------------------------------------------| 
|---------------------------------------------------------| 
|---------------------------------------------------------|X4 
|---------------------------------------------------------| 
|-0h12h15-0-0-0-0-0-0-0h12h15-0-0-0-0h12h15-0h12h15-0-0-0-| 
          + + + + + +         + + +                 + + + 

"Did I Thank You..." 
|---------------------------------------------------------| 
|---------------------------------------------------------| 
|---------------------------------------------------------| 
|---------------------------------------------------------|X4 
|---------------------------------------------------------| 
|-0h12h15-0-0-0-0-0-0-0-0-0-0-0-0-0-0h12h15-0h12h15-0-0-0-| 
          + + + + + + + + + + + + +                 + + + 

Did I thank you for tearing my head off? 
|-----------------------------------------------------| 
|-----------------------------------------------------| 
|-----------------------------------------------------| 
|-----------------------------------------------------| 
|-----------------------------------------------------| 
|-5h8h5-5-5-5-5-5-5-5h8h5-5-5-5-5-5-5h8h5-5h8h5-5-5-5-| 
        + + + + + +       + + + + +             + + + 
Ripping my Heart out? Fucking my World! 
|-----------------------------------------| 
|-----------------------------------------| 
|-----------------------------------------| 
|-----------------------------------------| 
|-----------------------------------------| 
|-3-3-3-3-3-3-3-3-3-3-2-2-2-2-2-2-2-2-2-2-| 

"Did We Tell You..." 
|---------------------------------------------------------| 
|---------------------------------------------------------| 
|---------------------------------------------------------| 
|---------------------------------------------------------|X4 
|---------------------------------------------------------| 
|-0h12h15-0-0-0-0-0-0-0-0-0-0-0-0-0-0h12h15-0h12h15-0-0-0-| 
          + + + + + + + + + + + + +                 + + + 

Did we thank you for tearing out heads off? 
|-----------------------------------------------------| 
|-----------------------------------------------------| 
|-----------------------------------------------------| 
|-----------------------------------------------------| 
|-----------------------------------------------------| 
|-5h8h5-5-5-5-5-5-5-5h8h5-5-5-5-5-5-5h8h5-5h8h5-5-5-5-| 
        + + + + + +       + + + + +             + + + 
Ripping our Hearts out? Fucking our World! 
|-----------------------------------------| 
|-----------------------------------------| 
|-----------------------------------------| 
|-----------------------------------------| 
|-----------------------------------------| 
|-3-3-3-3-3-3-3-3-3-3-2-2-2-2-2-2-2-2-2-2-| 

**Solo** 

|--17~----19~-17~-19~-17~-19~-17~-19~-17~-------------| 
|-----------------------------------------------------| 
|--14~~---16~-14~-16~-14~-16~-14~-16~-14~-------------| 
|-----------------------------------------------------| 
|-----------------------------------------------------| 
|-----------------------------------------------------| 

|---------------------------15-17-15-----22~~~~~~~~---| 
|---------------------15-18----------18---------------| 
|--14~~-12~~-11~~-------------------------------------| 
|-----------------------------------------------------| 
|-----------------------------------------------------| 
|-----------------------------------------------------| 

Guitar Dual Solo 
Guitar 1 
|---------------------------------------------------------| 
|---------------------------------------------------------| 
|--14~-12h14h12-12h14h10-10h12h9-9h10h7-7h9h5-5h7h3-3h5h2-| 
|---------------------------------------------------------| 
|---------------------------------------------------------| 
|---------------------------------------------------------| 

Guitar 2 
|-----------------------------------------------------| 
|-----------------------------------------------------| 
|-----------------------------------------------------| 
|-----------------------------------------------------| 
|-0--0-2-3--5-7-8--7-5-7---8--7-5-7--5-3-5--3-2-0-----| 
|-0--0-2-3--5-7-8--7-5-7---8--7-5-7--5-3-5--3-2-0-----| 

Guitar 3 
|------------------------------------------------------------| 
|------------------------------------------------------------| 
|------------------------------------------------------------| 
|-15~-14h15h14-14h15h12-12h14h10-10h12h8-8h10h7-7h8h5-5h7h3--| 
|------------------------------------------------------------| 
|------------------------------------------------------------| 


----------------------------------------------------------------------- 

Guitar 1 
|-17~-17h15h17-15h17h13-13h15h12-12h13h10-10h12h8-8h10h16-6h8h5-| 
|---------------------------------------------------------------| 
|---------------------------------------------------------------| 
|---------------------------------------------------------------| 
|---------------------------------------------------------------| 
|---------------------------------------------------------------| 

Guitar 2 
|-----------------------------------------------------| 
|-----------------------------------------------------| 
|-----------------------------------------------------| 
|-----------------------------------------------------| 
|-0--0-2-3--5-7-8--7-5-7---8--7-5-7--5-3-5--3-2-0-----| 
|-0--0-2-3--5-7-8--7-5-7---8--7-5-7--5-3-5--3-2-0-----| 

Guitar 3 
|------------------------------------------------------------| 
|------------------------------------------------------------| 
|------------------------------------------------------------| 
|-15~-14h15h14-14h15h12-12h14h10-10h12h8-8h10h7-7h8h5-5h7h3--| 
|------------------------------------------------------------| 
|------------------------------------------------------------| 

----------------------------------------------------------------------- 

Guitar 1 
|-17~-17h15h17-15h17h13-13h15h12-12h13h10-10h12h8-8h10h16-6h8h5-| 
|---------------------------------------------------------------| 
|---------------------------------------------------------------| 
|---------------------------------------------------------------| 
|---------------------------------------------------------------| 
|---------------------------------------------------------------| 

Guitar 2 
|-----------------------------------------------------| 
|-----------------------------------------------------| 
|-----------------------------------------------------| 
|-----------------------------------------------------| 
|-0--0-2-3--5-7-8--7-5-7---8--7-5-7--5-3-5--3-2-0-----| 
|-0--0-2-3--5-7-8--7-5-7---8--7-5-7--5-3-5--3-2-0-----| 

Guitar 3 
|------------------------------------------------------------| 
|------------------------------------------------------------| 
|------------------------------------------------------------| 
|-15~-14h15h14-14h15h12-12h14h10-10h12h8-8h10h7-7h8h5-5h7h3--| 
|------------------------------------------------------------| 
|------------------------------------------------------------| 

----------------------------------------------------------------------- 

Guitar 1 
|-17~-17h15h17-15h17h13-13h15h12-12h13h10-10h12h8-8h10h16-6h8h5-| 
|---------------------------------------------------------------| 
|---------------------------------------------------------------| 
|---------------------------------------------------------------| 
|---------------------------------------------------------------| 
|---------------------------------------------------------------| 

Guitar 2 
|-----------------------------------------------------| 
|-----------------------------------------------------| 
|-----------------------------------------------------| 
|-----------------------------------------------------| 
|-0--0-2-3--5-7-8--7-5-7---8--7-5-7--5-3-5--3-2-0-----| 
|-0--0-2-3--5-7-8--7-5-7---8--7-5-7--5-3-5--3-2-0-----| 

Guitar 3 
|------------------------------------------------------------| 
|------------------------------------------------------------| 
|------------------------------------------------------------| 
|-15~-14h15h14-14h15h12-12h14h10-10h12h8-8h10h7-7h8h5-5h7h3--| 
|------------------------------------------------------------| 
|------------------------------------------------------------| 

-------------------------------------------------------------------------- 
Both Guitar 1 and 3 
|--17---------17---------19-------------19--| 
|-------------------------------------------| 
|--14---------14---------16-------------16--| 
|-------------------------------------------| 
|-------------------------------------------| 
|-------------------------------------------| 

|-----------------------------------------------------| 
|-----------------------------------------------------| 
|-----------------------------------------------------| 
|-----------------------------------------------------| X4 
|-----------------------------------------------------| 
|-0h12h15--0-0--0h12h15--0--0h12h15-0h12h15--0--------| 
           + +           +                   + 

**Break** 
5:29 - 5:39 (Crowd Applause Part) 


5:40 - 5:49                           "I Can't Break It!" 
|----------------------------------------------| 
|----------------------------------------------| 
|----------------------------------------------| 
|----------------------------------------------| 
|----------------------------------------------| 
|--8~-5-7---3-2--3-5-5-0~~---8~-5-7---3-2--3-5-| 


5:50 - 6:33 
"In The End..." 
|------------------------------------| 
|------------------------------------| 
|------------------------------------| 
|------------------------------------| 
|--5-5-5-5-5-5-5-5-5-5-5-5-5-5-3-5---| 
|--5-5-5-5-5-5-5-5-5-5-5-5-5-5-3-5---| 

"But it's already over..." 
|-------------------------------------| 
|-------------------------------------| 
|-----------11--12--14----------------| 
|-------------------------------------| 
|--0--0--0--9---10--12---5-3-0--------| 
|--0--0--0---------------5-3-0--------| 

"In The End!..."                    "Sun Goes down..." 
|-----------------------------------------------------| 
|-----------------------------------------------------| 
|-----------------------------------------------------| 
|-----------------------------------------------------| 
|-8-8-8-8--8-8--8-8-8-8--8-8--5-5-5-5--5-5----3~-2~---| 
|-8-8-8-8--8-8--8-8-8-8--8-8--5-5-5-5--5-5----3~-2~---| 

"In The End..." 
|------------------------------------| 
|------------------------------------| 
|------------------------------------| 
|------------------------------------| 
|--5-5-5-5-5-5-5-5-5-5-5-5-5-5-3-5---| 
|--5-5-5-5-5-5-5-5-5-5-5-5-5-5-3-5---| 

"But it's already over..." 
|-------------------------------------| 
|-------------------------------------| 
|-----------11--12--14----------------| 
|-------------------------------------| 
|--0--0--0--9---10--12---5-3-0--------| 
|--0--0--0---------------5-3-0--------| 

"In The End!..."                    "Sun Goes down on Me!" 
|-----------------------------------------------------| 
|-----------------------------------------------------| 
|-----------------------------------------------------| 
|-----------------------------------------------------| 
|-8-8-8-8--8-8--8-8-8-8--8-8--5-5-5-5--5-5----3~-2~---| 
|-8-8-8-8--8-8--8-8-8-8--8-8--5-5-5-5--5-5----3~-2~---| 


The Climax of the Song 
6:34 - 6:48 
|-----------------------------------------------------| 
|-----------------------------------------------------| 
|-----------------------------------------------------| 
|-----------------------------------------------------| X4 
|-----------------------------------------------------| 
|-0h12h15--0-0--0h12h15--0--0h12h15-0h12h15--0--------| 
	  

Search Paypal
auto scroll beats size up size down change color hide chords drawings
tab show chords e-chords YouTube Clip e-chords hide all tabs e-chords go to top tab

share with facebook