Anthrax

home > Anthrax

Across The River Tab

Anthrax

Difficulty: AdvancedAdvanced

by tercmoraes

tuner correct add songbook print version text version save to e-mail
chordsukulelecavacokeyboardtabbassdrumsharmonicsflute Guitar Pro
chords

Across The River

  		Intro 
E |-----------------------------| 
B |-----------------------------| 
G |-----------------------------| 
D |-----------------------------| 
A |-----------------------------| 
E |-0-0-0-0-0-0-0-0-0-0-0-0-...-| 
   * * * * * * * * * * * * 

Riff 1  (Solo Rhythm) 
E |---------------------------| 
B |---------------------------| 
G |---------------------------| 
D |------------------------12-| 
A |-----------------9--10--10-| 
E |-0-0-0-0-0-0-0-0-7---8-----| 
   * * * * * * * * 
E |---------------------------| 
B |---------------------------| 
G |---------------------------| 
D |---------------------------| 
A |-----------------9--10--12-| 
E |-0-0-0-0-0-0-0-0-7---8--10-| 
   * * * * * * * * 

Riff 2 
Guitar 1                                                  x2 
E |-19p17p15-17--19p17p15-17--19p17p15-17p15p14-15p14p12-14-| 
B |---------------------------------------------------------| 
G |---------------------------------------------------------| 
D |---------------------------------------------------------| 
A |---------------------------------------------------------| 
E |---------------------------------------------------------| 

Guitar 2                                                 x2 
E |-15p14p12-14--15p14p12-14--15p14p12-14p12p10-12p10p9-10-| 
B |--------------------------------------------------------| 
G |--------------------------------------------------------| 
D |--------------------------------------------------------| 
A |--------------------------------------------------------| 
E |--------------------------------------------------------| 

Riff 2a (Play 2x) 
Both Guitars 
E |---------------------------------------| 
B |---------------------------------------| 
G |-14h16p14\-12h14p12\-11h12p11\-9h11p9\-| 
D |---------------------------------------| 
A |---------------------------------------| 
E |---------------------------------------| 

E |-----------------------| 
B |-----------------------| 
G |-7h9p7\-6h7p6\-4h6h7-4-| 
D |-----------------------| 
A |-----------------------| 
E |-----------------------| 

Riff 2b 
Guitar 1 
E |-19p17p15-17--19p17p15-17--19p17p15-17p15p14-15p14p12-14-| 
B |---------------------------------------------------------| 
G |---------------------------------------------------------| 
D |---------------------------------------------------------| 
A |---------------------------------------------------------| 
E |---------------------------------------------------------| 

E |-19p17p15-17--19p17p15-17--19p17p15-17p15p14-15p14p12-14p12p10-| 
B |---------------------------------------------------------------| 
G |---------------------------------------------------------------| 
D |---------------------------------------------------------------| 
A |---------------------------------------------------------------| 
E |---------------------------------------------------------------| 

Guitar 2 
E |-15p14p12-14--15p14p12-14--15p14p12-14p12p10-12p10p9-10-| 
B |--------------------------------------------------------| 
G |--------------------------------------------------------| 
D |--------------------------------------------------------| 
A |--------------------------------------------------------| 
E |--------------------------------------------------------| 

E |-15p14p12-14--15p14p12-14--15p14p12-14p12p10-12p10p9-10p9p7-| 
B |------------------------------------------------------------| 
G |------------------------------------------------------------| 
D |------------------------------------------------------------| 
A |------------------------------------------------------------| 
E |------------------------------------------------------------| 
	  

Full key step upFull key step up
Half key step upHalf key step up
Half key step downHalf key step down
Full key step downFull key step down
Search Paypal
auto scroll beats size up size down change color hide chords drawings
tab show chords e-chords YouTube Clip e-chords hide all tabs e-chords go to top tab