Ansia

Canción Del Pinar

Ansia

tabs

by  PAULRR_

save to print version add songbook text version e-mail correct tuner
chordsukulelecavacokeyboardtabbassdrumsharmonicaflute Guitar Pro
close

there isn't a video lesson for this song

chords

Canción Del Pinar

	  		INTRO  

e|------------------------------------| 
B|------------------------------------| 
G|-5-45 555 444 555 444 555 444 555 5-| 
D|-5-55 555 555 555 555 555 555 555 5-| 
A|-3-33 333 333 333 333 333 333 303 3-| 
E|------------------------------------| 
    C5 

Verso 1 
e|-------------------------|-------------------------| 
B|-------------------------|-------------------------| 
G|-55555-------------------|-55555-------------------| 
D|-55555-77777-33333-55555-|-55555-77777-33333-55555-| 
A|-33333-77777-33333-55555-|-33333-77777-33333-55555-| 
E|-------55555-11111-33333-|-------55555-11111-33333-| 
    C5    A5     F5   G5      C5     A5    F5    G5 

 (     P.M.   ) 
e|--------------------------------------------| 
B|--------------------------------------------| 
G|-------------55555-4-2222-------------55555-| 
D|-33333-55555-55555-4-2222-33333-55555-55555-| 
A|-33333-55555-33333-2-0000-33333-55555-33333-| 
E|-11111-33333--------------11111-33333-------| 
    F5    G5    C5  B5  E     F5   G5     C5 


e|-------------------------|-------------------------| 
B|-------------------------|-------------------------| 
G|-55555-------------------|-55555-------------------| 
D|-55555-77777-33333-55555-|-55555-77777-33333-55555-| 
A|-33333-77777-33333-55555-|-33333-77777-33333-55555-| 
E|-------55555-11111-33333-|-------55555-11111-33333-| 
    C5    A5     F5   G5      C5     A5    F5    G5 

 (     P.M.   ) 
e|--------------------------------------------| 
B|--------------------------------------------| 
G|-------------55555-4-2222-------------55555-| 
D|-33333-55555-55555-4-2222-33333-55555-55555-| 
A|-33333-55555-33333-2-0000-33333-55555-33333-| 
E|-11111-33333--------------11111-33333-------| 
    F5    G5    C5  B5  A5     F5   G5     C5 


e|---------------------------------------| 
B|---------------------------------------| 
G|-5555555-------------------------55555-| 
D|-5555555-33333-55555-33333-55555-55555-| 
A|-0333355-33333-55555-33333-55555-33333-| 
E|---------11111-33333-11111-33333-------| 
     C5     F5    G5    F5    G5     C5 

 (     P.M.   ) 
e|--------------------------------------------| 
B|--------------------------------------------| 
G|-------------55555-4-2222-------------55555-| 
D|-33333-55555-55555-4-2222-33333-55555-55555-| 
A|-33333-55555-33333-2-0000-33333-55555-33333-| 
E|-11111-33333--------------11111-33333-------| 
    F5    G5    C5  B5  A5    F5   G5     C5 


e|-------------------------|-------------------------| 
B|-------------------------|-------------------------| 
G|-55555-------------------|-55555-------------------| 
D|-55555-77777-33333-55555-|-55555-77777-33333-55555-| 
A|-33333-77777-33333-55555-|-33333-77777-33333-55555-| 
E|-------55555-11111-33333-|-------55555-11111-33333-| 
    C5    A5     F5   G5      C5     A5    F5    G5 

 (     P.M.   ) 
e|--------------------------------------------| 
B|--------------------------------------------| 
G|-------------55555-4-2222-------------55555-| 
D|-33333-55555-55555-4-2222-33333-55555-55555-| 
A|-33333-55555-33333-2-0000-33333-55555-33333-| 
E|-11111-33333--------------11111-33333-------| 
    F5    G5    C5  B5  E     F5   G5     C5 

e|-------------------------|-------------------------| 
B|-------------------------|-------------------------| 
G|-55555-------------------|-55555-------------------| 
D|-55555-77777-33333-55555-|-55555-77777-33333-55555-| 
A|-33333-77777-33333-55555-|-33333-77777-33333-55555-| 
E|-------55555-11111-33333-|-------55555-11111-33333-| 
    C5    A5     F5   G5      C5     A5    F5    G5 

 (     P.M.   ) 
e|--------------------------------------------| 
B|--------------------------------------------| 
G|-------------55555-4-2222-------------55555-| 
D|-33333-55555-55555-4-2222-33333-55555-55555-| 
A|-33333-55555-33333-2-0000-33333-55555-33333-| 
E|-11111-33333--------------11111-33333-------| 
    F5    G5    C5  B5  A5     F5   G5     C5 

e|---------------------------------------| 
B|---------------------------------------| 
G|-5555555-------------------------55555-| 
D|-5555555-33333-55555-33333-55555-55555-| 
A|-0333355-33333-55555-33333-55555-33333-| 
E|---------11111-33333-11111-33333-------| 
     C5     F5    G5    F5    G5     C5 

 (     P.M.   ) 
e|--------------------------------------------| 
B|--------------------------------------------| 
G|-------------55555-4-2222-------------55555-| 
D|-33333-55555-55555-4-2222-33333-55555-55555-| 
A|-33333-55555-33333-2-0000-33333-55555-33333-| 
E|-11111-33333--------------11111-33333-------| 
    F5    G5    C5  B5  A5    F5   G5     C5 

e|--------------------------------------------| 
B|--------------------------------------------| 
G|-------------55555-4-2222-------------55555-| 
D|-33333-55555-55555-4-2222-33333-55555-55555-| 
A|-33333-55555-33333-2-0000-33333-55555-33333-| 
E|-11111-33333--------------11111-33333-------| 
    F5    G5    C5  B5  A5    F5   G5     C5 


Termina con C5 y después hace la boludez de Largirucho 
en C5 (A)
		  

Full key step upFull key step up
Half key step upHalf key step up
Half key step downHalf key step down
Full key step downFull key step down
auto scroll beats size up size down change color hide chords drawings
tab show chords e-chords YouTube Clip e-chords hide all tabs e-chords go to top tab

share