A.n.i.m.a.l.

Sol

A.n.i.m.a.l.

tabs

by  VITOCRUZ

save to print version add songbook text version e-mail correct tuner
chordsukulelecavacokeyboardtabbassdrumsharmonicaflute Guitar Pro
close

there isn't a video lesson for this song

chords

Sol

Written by Marcelo Corvalan / Andres Gimenez / Martin Carrizo

	  		(1) 
6D:--2-2-2-2-5-2-2-2-2-1-1-1-2-2---0 
5A:--2-2-2-2-5-2-2-2-2-1-1-1-2-2-1-0 
4D:--2-2-2-2-5-2-2-2-2-1-1-1-2-2-3-0 
3G:--------------------------------- 
2B:--------------------------------- 
1E:--------------------------------- 

(2)                  (3)     
6D:----2-2-2-2--      6D:-2-2--2--2-2-2--2--2--2-2 
5A:-4--2-2-2-2--      5A:-2-2--2--2-2-2--2--2--2-2 
4D:-6--2-2-2-2--      4D:-2-2--2--2-2-2--2--2--2-2 
3G:-------------      3G:------------------------- 
2B:-------------      2B:------------------------- 
1E:-------------      1E:------------------------- 

(4)                    (5)     
6:-5-2-2-5-2-2-------- 6:-5-2-2-2---------  
5:-5-2-2-5-2-2-4-5-4-1 5:-5-2-2-2-4-5-4-1- 
4:-5-2-2-5-2-2-6-7-6-3 4:-5-2-2-2-6-7-6-3- 
3:-------------------- 3:----------------- 
2:-------------------- 2:----------------- 
1:-------------------- 1:----------------- 

(6) 
6:-2----2-2---- 
5:------------- 
4:--2-2--2--2-- 
3:------------3 
2:------------- 
1:------------- 
(1) 
(1) 
Fuente de mágica energía que genera 
todo lo que nos rodea en esta vida. 
Dentro nuestro una parte de ella 
todos hijos de una misma fuerza 
que genera acción caliente, ligera, 
guerrera, perfecta, da vueltas, 
se mueve y se retroalimenta 
cambiando de cuerpo, de vida, de esfera, 
jalea de dios, la ley mas suprema, 
(2) 
sol !!! sol!! 
(3) 
Nada ajeno tiene tanto poder !! 
(1) 
Hondo al fondo, bien en el fondo del alma 
tienes la llave para hacer que se expanda 
mas allá de nuestro propio cuerpo 
(3) 
nada ajeno tiene tanto poder !! 
nada externo tiene tanto poder !! 
nada lejos tiene tanto poder !! 
nada afuera tiene tanto poder !! 
(4) 
(5) 
Sol, derritiendo el dolor !! 
Sol, una pirámide que apunta al cielo !! 
Sol, viene se aleja pero no se apaga !! 
Sol, mas caliente que el sol !! 
(6) 

(1) 
Quemamos, nublamos, nacemos, 
morimos, con rayos sinceros 
bañamos los días, derritiendo  
el miedo que mas nos enfría. 
(3) 
Nada lejos tiene tanto poder !! 
Nada afuera tiene tanto poder !! 
(4) 
(5) 
Sol, derritiendo el dolor !! 
Sol, una pirámide que apunta al cielo !! 
Sol, viene se aleja pero no se apaga !! 
Sol, mas caliente que el sol !! 
(6) 


Y listo!
		  

auto scroll beats size up size down change color hide chords drawings
tab show chords e-chords YouTube Clip e-chords hide all tabs e-chords go to top tab