A.n.i.m.a.l.

Esclavo De Ilusión

A.n.i.m.a.l.

tabs

by  VITOCRUZ

save to print version add songbook text version e-mail correct tuner
chordsukulelecavacokeyboardtabbassdrumsharmonicaflute Guitar Pro
close

there isn't a video lesson for this song

chords

Esclavo De Ilusión

Written by M. Corvalan / A. Gimenez / A. Alo

	  		INTRO 

D---------------------------- 
A---------1--------1--1------ 
F-------0---0--------0--0---- 
C-----2-------2-2------2--2-- 
G---3------------------------ 
C-3-------------------------- 

PARTE FINAL DEL INTRO 

D-------------------------12H- 
A---------1--------1------12H- 
F-------0---0--------0----12H- 
C-----2-------2-2------------- 
G---3------------------------- 
C-3--------------------------- 

RIFF1 

D-------------------1----1----- 
A-------3-------------1----1--- 
F-----0---0------2------2------ 
C---2-------2------------------ 
G-3-----------0---------------- 
C------------------------------ 

PEQUEÑO SOLO 

D-8/10-10-10---------8\6-6--6\5------------------- 
A------------------------------------6-8-8b-6----- 
F-----------------------------------------------7- 
C------------------------------------------------- 
G------------------------------------------------- 
C------------------------------------------------- 

FINAL(CUANDO ACABA LA CANCION) 

D-------------------------------- 
A-6------------------------------ 
F---7-5--7-5---7----------------- 
C------------7---7-5--7-5-3--0--- 
G-------------------------------- 
C-------------------------------- 


INTRO(3 VECES) 

PARTE FINAL DEL INTRO(1 VEZ) 


INTRO(16 VECES) 

FUE LO QUE TENIA Y AHORA TENGO MAS, 

LA ESTRELLA QUE MAS BRILLA PUDE ALCANZAR, 

Y ESPERO QUE ME MUESTRE A DONDE ME LLEVARA 

COMO EL VIENTO EMPUJA UNA HOJA MUERTA. 


FUERTE ES EL CAMINO POR RECORRER 

HASTA ESA ILUSION QUE TANTO ANSIO VER, 

Y SI LA META ENCUENTRO 

Y TODAVIA PUEDO ANDAR 

EL VIAJE MAS DURO SERA HOY. 


RIFF1(4 VECES) 

TENGO UN AS DE ESPADAS  

Y UN AS DE CORAZON 

AMBAS GANAN LA PARTIDA DE UNA JUGADA. 


INTRO(3 VECES)(MIENTRA SE TOCA EL SOLO) 

PEQUEÑO SOLO 

D-8/10-10-10---------8\6-6--6\5------------------- 
A------------------------------------6-8-8b-6----- 
F-----------------------------------------------7- 
C------------------------------------------------- 
G------------------------------------------------- 
C------------------------------------------------- 

PARTE FINAL DEL INTRO(1 VEZ) 


INTRO(8 VECES) 

QUE MALA ENFERMEDAD TENDRA ESTA TIERRA HOY, 

QUE LAVA COMENZO A ESCUPIR, 

O SERA QUE ESTA CONTENTA Y ES SU FORMA DE REIR, 

TODO COMIENZA A TENER SENTIDO HOY. 


RIFF1(8 VECES) 

TENGO UN AS DE ESPADAS  

Y UN AS DE CORAZON 

AMBAS GANAN LA PARTIDA DE UNA JUGADA 

TENGO UN AS DE ESPADAS  

Y UN AS DE CORAZON, 

VIVIR,MORIR,MORIR,EXISTIR.... 


INTRO(4 VECES) Y DESPUES FINAL(1 VEZ) 

EXISTIR... 


TRANSCRITA POR: 
LUIS DANIEL ABREGO SOLIS 
E-MAIL:[email protected]
		  

auto scroll beats size up size down change color hide chords drawings
tab show chords e-chords YouTube Clip e-chords hide all tabs e-chords go to top tab