Angus Stone

The Weatherman

Angus Stone

tabs

by  DEIVCAVALCANTI

save to print version add songbook text version e-mail correct tuner
chordsukulelecavacokeyboardtabbassdrumsharmonicaflute Guitar Pro
close

there isn't a video lesson for this song

chords

The Weatherman

	  		The Weatherman ? Angus Stone 

(Banjo for guitar) 

e|-----0h2---------0---| 
B|-------------0h2-----| 
G|-2-2-------2-------2-| 
D|---------------------| 
A|-0-----------0-------| 
E|---------------------|    x 4 


(Pattern B) 
e|-------0-----------------| 
B|-0h2-----2------0--------| 
G|-----2-----2--2---2---2--|          with Asus4 and A chords  
D|--------------------4----|          overlay 
A|-0--------------0--------| 
E|-------------------------|    x 2 


(return to first pattern and  
(Overlay guitar arpeggios) ? A add9 

e|------7--------| 
B|----5---5------| 
G|---6-----------| 
D|--7------------| 
A|---------------| 
E|---------------| 


Pattern B used for 2nd Chorus 

Change at 2:05 

e|-------------------------| 
B|--3---3--2---3--3-5-5-2--| 
G|--2---2--2---2--2-0-0-2--| 
D|--4---4--2---4--4-5-5-2--| 
A|--0---0--0---0--0-0-0-0--| 
E|-------------------------| 

_________________________________________ 
Requested by Joe Taylor @ Laugh and Learn 
		  

Full key step upFull key step up
Half key step upHalf key step up
Half key step downHalf key step down
Full key step downFull key step down
hide glossary

See also:

tabs 5 Seconds Of Summer - Long Way Home (acoustic) tabs Kylie Minogue - Cant Get U Out Of My Head tabs Kate Miller-heidke - Fire And Iron tabs Last Dinosaurs - Purist tabs 5 Seconds Of Summer - Social Casualty tabs Lakyn Heperi - Kids
e-chords

Other versions:

tabs Angus Stone - The Weatherman
auto scroll beats size up size down change color hide chords drawings
tab show chords e-chords YouTube Clip e-chords hide all tabs e-chords go to top tab

share