Andrés Calamaro

home > Andrés Calamaro

Loco Tab

Andrés Calamaro

Difficulty: BeginnerBeginner

by sabrjoao

tuner correct add songbook print version text version save to e-mail
chordsukulelecavacokeyboardtabbassdrumsharmonicsflute Guitar Pro
chords

Loco

(Andrés Calamaro)

  		Estoy 100% seguro de las notas, pero de cualquier manera 
tienen mi mail para puteadas, consejos, correciones,etc,etc,etc. 




SOLO 


(1:47) 
e-----------------------------------------------------| 
B-------8v------10/12-13-12---10h12-10vv---10h12------| 
G-7-7h9----9-------------------------------------12vv-| 
D-----------------------------------------------------| 
A-----------------------------------------------------| 
E-----------------------------------------------------| 

(1:56) 
e------7--10-8-7----7------------------------------| 
B----8----------------10---8-7---5h7p5--7vv-7/8----| 
G-/9---------------------------------------------9-| 
D--------------------------------------------------| 
A--------------------------------------------------| 
E--------------------------------------------------| 

(2:04) 
e-------------7---10---10/12-|-10-10b12-10vv---10b12-7-| 
B---------8-----8----8-------|-------------------------| 
G-7---9-7---9----------------|-------------------------| 
D---9------------------------|-------------------------| 
A----------------------------|-------------------------| 
E----------------------------|-------------------------| 

(2:13) 
e--------------------|--------------------------------------------| 
B-10b12-10b12-10b12v-|-8-10-10b12---8------10vv-------10-10/12----| 
G--------------------|-------------9-9-------------------------12-| 
D--------------------|--------------------------------------------| 
A--------------------|--------------------------------------------| 
E--------------------|--------------------------------------------| 
                       \             / 
                        \           / 
                    estas notas se tocan 
                      bastante rápido 
(2:21)                               (2:30) 
e-----------------------------------|-------------------8-10--------------------------| 
B-----------------------------------|-7-8----8-10-10b12------10b12-7h8-8-7v--7-7--7---| 
G-7-7/9-------------------------7vv-|-----------------------------------------9-----9-| 
D-------7/9\7--7-7h9-7vv--7-7/9-----|-------------------------------------------------| 
A-----------------------------------|-------------------------------------------------| 
E-----------------------------------|-------------------------------------------------| 

(2:40)                                                     (2:49) 
e-10-----------------------------------10-10vv--10b11b12-|--------------------------------| 
B----12-10-8-10p8-8-10p8-8-10-10/12-12-------------------|---8-8-8-8/10\--8-7-------------| 
G--------------------------------------------------------|-7------------------7/9\7-7/9\7-| 
D--------------------------------------------------------|--------------------------------| 
A--------------------------------------------------------|--------------------------------| 
E--------------------------------------------------------|--------------------------------| 

               (2:58)                                      (3:04) 
e-------------|--------7---------------------------------|--------------------------| 
B-------------|---8/10---8vv----8/10-12-10vv--7-7/8-10-8-|--------------------------| 
G-------------|-7-------------9--------------------------|----------------------7-9-| 
D-7/9\7-9-7vv-|------------------------------------------|-7-7h9p7-7/9\7--7-7/9-----| 
A-------------|------------------------------------------|--------------------------| 
E-------------|------------------------------------------|--------------------------| 

                            (3:14)                                              armónicos nat 
e--------------------------|--------------------------------------------------------(12)----| 
B----------8-7-------------|-/13-13-13--12-12-12--10-10-10--8-8-8-8/10\-7--7/8v------(12)---| 
G-7-9--7-------7-7vv-7/9vv-|-/12-12-12--12-12-12--12-12-12--9-9-9-9/12\-7--7/9v-------(12)--| 
D--------------------------|----------------------------------------------------------------| 
A--------------------------|----------------------------------------------------------------| 
E--------------------------|----------------------------------------------------------------| 

 (3:24)                                                    (3:31) 
e---------------------------------------------------------|-------------------| 
B------------------------------8-5-7-------------5--------|-------------------| 
G--------------7-9---/7-9-6-7--------7-4-7-4-7-4---4-7-4\-|---------5---------| 
D-7-7h9-7v---7--------------------------------------------|-5-7-5-7---7h9-5-5-| 
A---------------------------------------------------------|----------------7--| 
E---------------------------------------------------------|-------------------| 


Ésta tablatura se la dedico a mi novia que es lo que mas amo. 
Te amo María José!!!!
	  

Search Paypal
auto scroll beats size up size down change color hide chords drawings
tab show chords e-chords YouTube Clip e-chords hide all tabs e-chords go to top tab