Alter Bridge

Wouldn't You Rather

Alter Bridge

tabs

by  TARIKIKE

save to print version add songbook text version e-mail correct tuner
chordsukulelecavacokeyboardtabbassdrumsharmonicaflute Guitar Pro
close

there isn't a video lesson for this song

chords

Wouldn't You Rather

	  		
Tuning - CGCFAD 

Intro 

   Guitar 1 
D|------------------------------------|---------------------------------------| 
A|-10/11--10----8----10----8-----7----|-10/11--10----8-----7------------------| 
F|-7-------7----7-----7----7-----7----|-7-------7----7-----7------------------| 
C|------------------------------------|---------------------------------------| 
G|------------------------------------|---------------------------------------| 
C|------------------------------------|---------------------------------------| 
 | 
 | Guitar 2 - db is delayed bend 
D|------------------------------------|---------------------------------------| 
A|------------------------------------|---------------------------------------| 
F|-7db----------------7db-------------|-7db----------------7db----------------| 
C|-x------------------x---------------|-x------------------x------------------| 
G|-5------------------5---------------|-5------------------5------------------| 
C|-0------------------0---------------|-0------------------0------------------| 


   Guitar 1 
D|------------------------------------|-------------------10------------------| 
A|-10/11--10----8----10----8-----7----|-10/11--10----8-----x------------------| 
F|-7-------7----7-----7----7-----7----|-7-------7----7-----7------------------| 
C|------------------------------------|---------------------------------------| 
G|------------------------------------|---------------------------------------| 
C|------------------------------------|---------------------------------------| 
 | 
 | Guitar 2 
D|------------------------------------|---------------------------------------| 
A|------------------------------------|---------------------------------------| 
F|-7b-----------------7b--------------|-7b-----------------7b-----------------| 
C|-x------------------x---------------|-x------------------x------------------| 
G|-5------------------5---------------|-5------------------5------------------| 
C|-0------------------0---------------|-0------------------0------------------| 


D|------------------------------------|---------------------------------------| 
A|-10/11--10----8----10----8-----7----|-10/11--10----8-----7------------------| 
F|-7-------7----7-----7----7-----7----|-7-------7----7-----7------------------| 
C|------------------------------------|---------------------------------------| 
G|------------------------------------|---------------------------------------| 
C|------------------------------------|---------------------------------------| 
 | 
 | Guitar 2 - db is delayed bend 
D|------------------------------------|---------------------------------------| 
A|------------------------------------|---------------------------------------| 
F|-7db----------------7db-------------|-7db----------------7db----------------| 
C|-x------------------x---------------|-x------------------x------------------| 
G|-5------------------5---------------|-5------------------5------------------| 
C|-0------------------0---------------|-0------------------0------------------| 


   Guitar 1 
D|------------------------------------|-------------------10------------------| 
A|-10/11--10----8----10----8-----7----|-10/11--10----8-----x------------------| 
F|-7-------7----7-----7----7-----7----|-7-------7----7-----7------------------| 
C|------------------------------------|---------------------------------------| 
G|------------------------------------|---------------------------------------| 
C|------------------------------------|----------------------------12\--------| 
 | 
 | Guitar 2 
D|------------------------------------|---------------------------------------| 
A|------------------------------------|-11PH_________b13----------------------| 
F|-7b-----------------7b--------------|---------------------------------------| 
C|-x------------------x---------------|---------------------------------------| 
G|-5------------------5---------------|---------------------------------------| 
C|-0------------------0---------------|---------------------------------------| 
                                        hit pinch harmonic, slowly bend up  



PreVerse 

D|------------------------------------------|-----------------------------------------| 
A|------------------------------------------|-----------------------------------------| 
F|------------------------------------------|-----------------------------------------| 
C|------------------------------------------|-----------------------------------------| 
G|---------5-5-5----------------------------|-----------------------------------------| 
C|-0-0-0-----------0-0-0---5pb6-5pb6-5pb6r5-|-----1-0-1/4-1-0-1/4-1-0-3NH-3NH-3NH-3NH-| 
   PH___           PH___ 

D|------------------------------------------|----------------------------------| 
A|------------------------------------------|----------------------------------| 
F|---------7-7-7----------10-10-10\---------|----------------------------------| 
C|------------------------------------------|----------------------------------| 
G|---------5-5-5-----------8--8--8\---------|-------------------------3b5------| 
C|-0-0-0-----------0-0-0--------------------|-6-5-6-5-3-0-----6-5-6-x----------| 

D|------------------------------------------|----------------------------------| 
A|------------------------------------------|----------------------------------| 
F|------------------------------------------|----------------------------------| 
C|------------------------------------------|----------------------------------| 
G|---------5-5-5----------------------------|-------------------------3--------| 
C|-0-0-0-----------0-0-0---5pb6-5pb6-5pb6r5-|-----1-0-1/4-1-0-1/4-1-0---6-5-0--| 

D|---------------------------------|--------------------------------------| 
A|---------------------------------|--------------------------------------| 
F|---------------------------------|--------------------------------------| 
C|---------------------------------|--------------------------------------| 
G|---------5-5-5-------------------|--------------------------------------| 
C|-0-0-0-----------0-0-0---5-5-5___|_5db6~~~~~~~~~~~~~----6-3-0-6-5-3-0---| 



PreVerse Myles Part 

   Add during last 4 bars of PreVerse 
D|-------------------------|-----------------------|--------------------|-----------------| 
A|-------------------------|-----------------------|-----------------6~~|~~~~~~~b8--------| 
F|--7~~-------7NH---13~~~~-|--------12--10---10b12-|-12--10-------------|-----------------| 
C|-------------------------|-----------------------|-------12~----------|-----------------| 
G|-------------------------|-----------------------|--------------------|-----------------| 
C|-------------------------|-----------------------|--------------------|-----------------| 


  
Verse 

   1      2       3       4          1      2       3         4 
D|--------------------------------|----------------------------------| 
A|--------------------------------|----------------------------------| 
F|--------------------------------|----------------------------------| 
C|--------------------------------|----------------------------------| 
G|-12-----------------------------|----------------------------------| 
C|----0---0---0-0-12h15-0-3---3p0-|-12h15-0-9---9---12h15-8---8-7----| 

   1      2       3       4          1      2       3         4 
D|--------------------------------|----------------------------------| 
A|--------------------------------|----------------------------------| 
F|--------------------------------|----------------------------------| 
C|--------------------------------|----------------------------------| 
G|-12-----------------------------|---------11----6------------------| 
C|----0---0---0-0-12h15-0-3---3p0-|-12h15-0-------8------------------| 

   1      2       3       4          1      2       3         4 
D|--------------------------------|----------------------------------| 
A|--------------------------------|----------------------------------| 
F|--------------------------------|----------------------------------| 
C|--------------------------------|----------------------------------| 
G|-12-----------------------------|----------------------------------| 
C|----0---0---0-0-12h15-0-3---3p0-|-12h15-0-9---9---12h15-8---8-7----| 

   1      2       3       4          1      2       3         4 
D|--------------------------------|----------------------------------| 
A|--------------------------------|----------------------------------| 
F|--------------------------------|----------------------------------| 
C|--------------------------------|----------------------------------| 
G|-12-----------------------------|---------11----6------------------| 
C|----0---0---0-0-12h15-0-3---3p0-|-12h15-0-------8---------/15\-----| 



PreChorus 

   Guitar 1 
D|------------------------------------|---------------------------------------| 
A|-10/11--10----8----10----8-----7----|-10/11--10----8-----7------------------| 
F|-7-------7----7-----7----7-----7----|-7-------7----7-----7------------------| 
C|------------------------------------|---------------------------------------| play 2x 
G|------------------------------------|---------------------------------------| 
C|------------------------------------|---------------------------------------| 
 | 
 | Guitar 2 
D|------------------------------------|---------------------------------------| 
A|------------------------------------|---------------------------------------| 
F|-7db----------------7db-------------|-7db----------------7db----------------| 
C|-x------------------x---------------|-x------------------x------------------| play 2x 
G|-5------------------5---------------|-5------------------5------------------| 
C|-0------------------0---------------|-0------------------0------------------| 



Chorus 

D|---------------------------------|---------------------------------| 
A|-3---3---3-----------------------|---------------------------------| 
F|-5---5---5-----------------------|---------------------------------| 
C|-5---5---5---3-------0---0---0---|-0---0---0---0---0---0---0---0---| 
G|-3---3---3---3-------0---0---0---|-0---0---0---0---0---0---0---0---| 
C|-------------3-------0---0---0---|-0---0---0---0---0---0---0---0---| 

D|---------------------------------|---------------------------------| 
A|-3---3---3-----------------------|---------------------------------| 
F|-5---5---5---7-------7---7---7---|-7---7---7-----------------------| 
C|-5---5---5---5-------5---5---5---|-5---5---5-----------------------| 
G|-3---3---3---5-------5---5---5---|-5---5---5-----------------------| 
C|-------------5-------5---5---5---|-5---5---5------15-13-12-0-12\---| 

D|---------------------------------|---------------------------------| 
A|-1---1---1-----------------------|---------------------------------| 
F|-3---3---3-----------------------|---------------------------------| 
C|-3---3---3---3-------0---0---0---|-0---0---0---0---0---0---0---0---| 
G|-1---1---1---3-------0---0---0---|-0---0---0---0---0---0---0---0---| 
C|-------------3-------0---0---0---|-0---0---0---0---0---0---0---0---| 

D|---------------------------------|---------------------------------| 
A|-3---3---3-----------------------|---------------------------------| 
F|-5---5---5---7-------7---7-------|---------------------------------| 
C|-5---5---5---5-------5---5---8---|---------------------------------| 
G|-3---3---3---5-------5---5---8---|-------------------------13\-----| 
C|-------------5-------5---5---8---|---------------------------------| 



Preverse 2 

   Rhythm 
D|------------------------------------------|----------------------------------| 
A|------------------------------------------|----------------------------------| 
F|------------------------------------------|----------------------------------| 
C|------------------------------------------|----------------------------------| 
G|---------5-5-5----------------------------|-------------------------5-5-5-5--| 
C|-0-0-0-----------0-0-0---5pb6-5pb6-5pb6r5-|-----1-0-1/4-1-0-1/4-1-0----------| 
 | 
 | Lead (Myles) 
D|------------------------------------------|----------------------------------| 
A|------------------------------------------|----------------------------------| 
F|--7~~---------7NH-----------13~~~~--------|--------------12----10----10b12---| 
C|------------------------------------------|----------------------------------| 
G|------------------------------------------|----------------------------------| 
C|------------------------------------------|----------------------------------| 

   Rhythm 
D|---------------------------------|--------------------------------------| 
A|---------------------------------|--------------------------------------| 
F|---------------------------------|--------------------------------------| 
C|---------------------------------|--------------------------------------| 
G|---------5-5-5-------------------|--------------------------------------| 
C|-0-0-0-----------0-0-0---5---5___|_5db6~~~~~~~~~~~~~----6-3-0-6-5-3-0---| 
 | 
 | Lead 
D|---------------------------------|--------------------------------------| 
A|-----------------------------6~~~|~~~~~~--------------------------------| 
F|-12----10--------------------5~~~|~~~~~~--------------------------------| 
C|----------12~--------------------|--------------------------------------| 
G|---------------------------------|--------------------------------------| 
C|---------------------------------|--------------------------------------| 


verse 2 

   1      2       3       4          1      2       3         4 
D|--------------------------------|----------------------------------| 
A|--------------------------------|----------------------------------| 
F|--------------------------------|----------------------------------| 
C|--------------------------------|----------------------------------| 
G|-12-----------------------------|----------------------------------| 
C|----0---0---0-0-12h15-0-3---3p0-|-12h15-0-9---9---12h15-8---8-7----| 

   1      2       3       4          1      2       3         4 
D|--------------------------------|----------------------------------| 
A|--------------------------------|----------------------------------| 
F|--------------------------------|----------------------------------| 
C|--------------------------------|----------------------------------| 
G|-12-----------------------------|---------11----6------------------| 
C|----0---0---0-0-12h15-0-3---3p0-|-12h15-0-------8------------------| 

   1      2       3       4          1      2       3         4 
D|--------------------------------|----------------------------------| 
A|--------------------------------|----------------------------------| 
F|--------------------------------|----------------------------------| 
C|--------------------------------|----------------------------------| 
G|-12-----------------------------|----------------------------------| 
C|----0---0---0-0-12h15-0-3---3p0-|-12h15-0-9---9---12h15-8---8-7----| 

   1      2       3       4          1      2       3         4 
D|--------------------------------|----------------------------------| 
A|--------------------------------|----------------------------------| 
F|--------------------------------|----------------------------------| 
C|--------------------------------|----------------------------------| 
G|-12-----------------------------|---------11----6------------------| 
C|----0---0---0-0-12h15-0-3---3p0-|-12h15-0-------8---------/15\-----| 



PreChorus 2 

   Guitar 1 
D|------------------------------------|---------------------------------------| 
A|-10/11--10----8----10----8-----7----|-10/11--10----8-----7------------------| 
F|-7-------7----7-----7----7-----7----|-7-------7----7-----7------------------| 
C|------------------------------------|---------------------------------------| play 2x 
G|------------------------------------|---------------------------------------| 
C|------------------------------------|---------------------------------------| 
 | 
 | Guitar 2 
D|------------------------------------|---------------------------------------| 
A|------------------------------------|---------------------------------------| 
F|-7db----------------7db-------------|-7db----------------7db----------------| 
C|-x------------------x---------------|-x------------------x------------------| play 2x 
G|-5------------------5---------------|-5------------------5------------------| 
C|-0------------------0---------------|-0------------------0------------------| 



Chorus 2 

D|---------------------------------|---------------------------------| 
A|-3---3---3-----------------------|---------------------------------| 
F|-5---5---5-----------------------|---------------------------------| 
C|-5---5---5---3-------0---0---0---|-0---0---0---0---0---0---0---0---| 
G|-3---3---3---3-------0---0---0---|-0---0---0---0---0---0---0---0---| 
C|-------------3-------0---0---0---|-0---0---0---0---0---0---0---0---| 

D|---------------------------------|---------------------------------| 
A|-3---3---3-----------------------|---------------------------------| 
F|-5---5---5---7-------7---7---7---|-7---7---7-----------------------| 
C|-5---5---5---5-------5---5---5---|-5---5---5-----------------------| 
G|-3---3---3---5-------5---5---5---|-5---5---5-----------------------| 
C|-------------5-------5---5---5---|-5---5---5------15-13-12-0-12\---| 

D|---------------------------------|---------------------------------| 
A|-1---1---1-----------------------|---------------------------------| 
F|-3---3---3-----------------------|---------------------------------| 
C|-3---3---3---3-------0---0---0---|-0---0---0---0---0---0---0---0---| 
G|-1---1---1---3-------0---0---0---|-0---0---0---0---0---0---0---0---| 
C|-------------3-------0---0---0---|-0---0---0---0---0---0---0---0---| 

D|---------------------------------|---------------------------------| 
A|-3---3---3-------------------3---|-----3---3-----------------------| 
F|-5---5---5---7-------7---7---5---|-----5---5---7-------7---7---7---| 
C|-5---5---5---5-------5---5---5---|-----5---5---5-------5---5---5---| 
G|-3---3---3---5-------5---5---3---|-----3---3---5-------5---5---5---| 
C|-------------5-------5---5-------|-------------5-------5---5---5---| 

D|---------------------------------|---------------------------------| 
A|---------------------------------|---------------------------------| 
F|-3---3---3---3---3---3---3---3---|-3---3---3---3---3---3-----------| 
C|-3---3---3---3---3---3---3---3---|-3---3---3---3---3---3-----------| 
G|-1---1---1---1---1---1---1---1---|-1---1---1---1---1---1---x/13\---| 
C|---------------------------------|---------------------------------| 
   PM_____________  get louder_______________________ 



Bridge 

   Rhythm 
D|-----------------------------------------------|----------------------------------------| 
A|-----------------------------------------------|----------------------------------------| 
F|-----------------------------------------------|----------------------------------------| 
C|-----------------------------------------------|----------------------------------------| 
G|-----------------------------------------------|----------------------------------------| 
C|-0-0---12-12-15-12-15---0-0---13-13-16-13-16---|-0-0---14-14-17-14-17-18-18-----18\-----| 
   PM________________________________________________________________________ 


   Rhythm 
D|-------------------------------------------|----------------------------------------| 
A|-------------------------------------------|----------------------------------------| 
F|-------------------------------------------|----------------------------------------| 
C|-------------------------------------------|----------------------------------------| 
G|-------------------------------------------|----------------------------------------| 
C|-0-0-----12-0-12-15---0-0-----13-0-13-16---|-0-0-----14-0-14-17---0-0---15/18-18-18-| 
 | 
 | Lead - with some modulation effect 
D|-------------------------------------------|----------------------------------------| 
A|-10-------------------11-------------------|-12------------------13-------11--------| 
F|-12b14----------------13b15----------------|-14b16---------------15b17----13b15-----| 
C|-------------------------------------------|----------------------------------------| 
G|-------------------------------------------|----------------------------------------| 
C|-------------------------------------------|----------------------------------------| 


   Rhythm 
D|-------------------------------------------|----------------------------------------|-------| 
A|-------------------------------------------|----------------------------------------|-------| 
F|-------------------------------------------|----------------------------------------|-------| 
C|-------------------------------------------|----------------------------------------|-------| 
G|-------------------------------------------|----------------------------------------|-------| 
C|-0-0-----12-0-12-15---0-0-----13-0-13-16---|-0-0-----14-0-14-17---0-0---15/18-18-18-|--0----| 
 | 
 | Lead  
D|-------------------------------------------|----------------------------------------|-------| 
A|-10-------------------11-------------------|-12------------------13-------14--------|--15\--| 
F|-12b14----------------13b15----------------|-14b16---------------15b17----16b17-----|-------| 
C|-------------------------------------------|----------------------------------------|-------| 
G|-------------------------------------------|----------------------------------------|-------| 
C|-------------------------------------------|----------------------------------------|-------| 



Solo 

D|-15b17--15br17--13~------------------------|-13---------------------------------------------| 
A|-------------------------15p13-15PH--15-15-|---15p13\10-13p10-------------------------------| 
F|-------------------------------------------|-----------------13p12-10---12-12b--10~---------| 
C|-------------------------------------------|-------------------------12-------------12p10---| 
G|-------------------------------------------|---------------------------------------------12-| 
C|-------------------------------------------|------------------------------------------------| 

D|-------------------------------------|---------------10-15-10--10----------------| 
A|--------10-10-12~--15-13-12-15-13-12-|-15-13-13-15-15--------15--10--13--10------| 
F|------12-----------------------------|-----------------------------13--------13--| 
C|-10-12-------------------------------|-------------------------------------------| 
G|-------------------------------------|-------------------------------------------| 
C|-------------------------------------|-------------------------------------------| 

D|----------------------------10\------|-0-0-8/10------------------------------| 
A|----------------------------10\------|----------10-8/10\8-8-6-8PH~-6---------| 
F|-12br13p10-----10h12--------10\------|-------------------------------7---5-7-| 
C|----------12p10-----12~~-------------|---------------------------------7-----| 
G|-------------------------------------|---------------------------------------| 
C|-------------------------------------|---------------------------------------| 

D|----------------------------------10-|-13-----13-15-----15-17-----17-20-17-20brb22----| 
A|------10--10--13gb15---------10-13---|---13-15-----15-18-----18-20--------------------| 
F|-10/12-------------------------------|------------------------------------------------| 
C|-------------------------------------|------------------------------------------------| 
G|-------------------------------------|------------------------------------------------| 
C|-------------------------------------|------------------------------------------------| 

D|-(20b22)-----------------------------| 
A|-------------18PH~~~-----------------| 
F|-------------------------------------| 
C|-------------------------------------| 
G|-------------------------------------| 
C|-------------------------------------| 
   this bar overlaps Chorus 



Final Chorus 

   Guitar 1 (initially hold while solo plays out) 
D|---------------------------------|---------------------------------| 
A|---------------------------------|---------------------------------| 
F|---------------------------------|---------------------------------| 
C|-------------3-------0---0---0---|-0---0---0---0---0---0---0---0---| 
G|-------------3-------0---0---0---|-0---0---0---0---0---0---0---0---| 
C|-------------3-------0---0---0---|-0---0---0---0---0---0---0---0---| 

D|---------------------------------|---------------------------------| 
A|-3---3---3-----------------------|---------------------------------| 
F|-5---5---5---7-------7---7---7---|-7---7---7-----------------------| 
C|-5---5---5---5-------5---5---5---|-5---5---5-----------------------| 
G|-3---3---3---5-------5---5---5---|-5---5---5-----------------------| 
C|-------------5-------5---5---5---|-5---5---5------15-13-12-0-12\---| 

D|---------------------------------|---------------------------------| 
A|-1---1---1-----------------------|---------------------------------| 
F|-3---3---3-----------------------|---------------------------------| 
C|-3---3---3---3-------0---0---0---|-0---0---0---0---0---0---0---0---| 
G|-1---1---1---3-------0---0---0---|-0---0---0---0---0---0---0---0---| 
C|-------------3-------0---0---0---|-0---0---0---0---0---0---0---0---| 

D|---------------------------------|---------------------------------| 
A|-3---3---3-----------------------|---------------------------------| 
F|-5---5---5---7-------7---7---3---|-3---3---3---3/5----5---5--------| 
C|-5---5---5---5-------5---5---3---|-3---3---3---3/5----5---5--------| 
G|-3---3---3---5-------5---5---1---|-1---1---1---1/3----3---3--------| 
C|-------------5-------5---5-------|---------------------------------| 

D|---------------------------------|---------------------------------| 
A|-3---3---3-----------------------|---------------------------------| 
F|-5---5---5-----------------------|---------------------------------| 
C|-5---5---5---3-------0---0---0---|-0---0---0---0---0---0---0---0---| 
G|-3---3---3---3-------0---0---0---|-0---0---0---0---0---0---0---0---| 
C|-------------3-------0---0---0---|-0---0---0---0---0---0---0---0---| 

D|---------------------------------|---------------------------------| 
A|-3---3---3-----------------------|---------------------------------| 
F|-5---5---5---7-------7---7---7---|-7---7---7-----------------------| 
C|-5---5---5---5-------5---5---5---|-5---5---5-----------------------| 
G|-3---3---3---5-------5---5---5---|-5---5---5-----------------------| 
C|-------------5-------5---5---5---|-5---5---5------15-13-12-0-12\---| 

D|---------------------------------|---------------------------------| 
A|-1---1---1-----------------------|---------------------------------| 
F|-3---3---3-----------------------|---------------------------------| 
C|-3---3---3---3-------0---0---0---|-0---0---0---0---0---0---0---0---| 
G|-1---1---1---3-------0---0---0---|-0---0---0---0---0---0---0---0---| 
C|-------------3-------0---0---0---|-0---0---0---0---0---0---0---0---| 

D|---------------------------------|---------------------------------| 
A|-3---3---3-------------------3---|-----3---3---1---1---------------| 
F|-5---5---5---7-------7---7---5---|-----5---5---3---3---------------| 
C|-5---5---5---5-------5---5---5---|-----5---5---3---3----------/12\-| 
G|-3---3---3---5-------5---5---3---|-----3---3---1---1----------/12\-| 
C|-------------5-------5---5-------|---------------------------------| 



Outro 

   Rhythm 
D|------------------------------------------|-----------------------------------------| 
A|------------------------------------------|-----------------------------------------| 
F|------------------------------------------|-----------------------------------------| 
C|------------------------------------------|-----------------------------------------| 
G|---------5-5-5----------------------------|-----------------------------------------| 
C|-0-0-0-----------0-0-0---5pb6-5pb6-5pb6r5-|-----1-0-1/4-1-0-1/4-1-0-3NH-3NH-3NH-3NH-| 
 | 
 | Lead (Myles) 
D|------------------------------------------|-----------------------------------------| 
A|------------------------------------------|-----------------------------------------| 
F|--7~~---------7NH-----------13~~~~--------|-----------------12-----10-----10b12-----| 
C|------------------------------------------|-----------------------------------------| 
G|------------------------------------------|-----------------------------------------| 
C|------------------------------------------|-----------------------------------------| 


   Rhythm 
D|-----------------------------------|----------------------------------| 
A|-----------------------------------|----------------------------------| 
F|------------------------10\--------|----------------------------------| 
C|-----------------------------------|----------------------------------| 
G|---------5-5-5-----------8\--------|-------------------------3b5------| 
C|-0-0-0-----------0-0-0-------------|-6-5-6-5-3-0-----6-5-6-x----------| 
 | 
 | Lead 
D|-----------------------------------|----------------------------------| 
A|-------------------------------6~~~|~~~~~~----------------------------| 
F|-12----10--------------------------|----------------------------------| 
C|----------12~----------------------|----------------------------------| 
G|-----------------------------------|----------------------------------| 
C|-----------------------------------|----------------------------------| 

   Rhythm 
D|------------------------------------------|----------------------------------| 
A|------------------------------------------|----------------------------------| 
F|------------------------------------------|----------------------------------| 
C|------------------------------------------|----------------------------------| 
G|---------5-5-5----------------------------|-------------------------3--------| 
C|-0-0-0-----------0-0-0---5pb6-5pb6-5pb6r5-|-----1-0-1/4-1-0-1/4-1-0---6-5-0--| 
 | 
 | Lead (Myles) 
D|------------------------------------------|----------------------------------| 
A|------------------------------------------|----------------------------------| 
F|--7~~---------7NH-----------13~~~~--------|---------------12---10---10b12----| 
C|------------------------------------------|----------------------------------| 
G|------------------------------------------|----------------------------------| 
C|------------------------------------------|----------------------------------| 

   Rhythm 
D|-----------------------------------|----------------------------------|---------| 
A|-----------------------------------|----------------------------------|-3s------| 
F|---------------------------x---0---|----------------------------------|-2s------| 
C|---------------------------x---0---|----------------------------------|-0s------| 
G|---------5-5-5-------------x---1---|----------------------------------|---------| 
C|-0-0-0-----------0-0-0-----x---1---|----------------------------------|---------| 
 | 
 | Lead 
D|-----------------------------------|----------------------------------|---------| 
A|-----------------------------------|----------------------------------|-3s------| 
F|-12----10------------------x--0----|----------------------------------|-2s------| 
C|----------12~--------------x--0----|----------------------------------|-0s------| 
G|---------------------------x--1----|----------------------------------|---------| 
C|---------------------------x--1----|----------------------------------|---------| 



************************************ 

| x   Dead note 
| h   Hammer-on 
| p   Pull-off 
| r   Release 
| b   Bend 
| db  delayed bend (hold note then bend) 
| br  Bend release 
| pb  Pre-bend 
| /   Slide up 
| \   Slide down 
| ~   Vibrato 
| PM  Palm mute 
| NH  Natural Harmonic 
| PH  Pinch Harmonic 
| s   staccato (short note, then mute) 

************************************ 
		  

Full key step upFull key step up
Half key step upHalf key step up
Half key step downHalf key step down
Full key step downFull key step down
hide glossary

See also:

tabs Simon & Garfunkel - Sounds of silence tabs The Strokes - Juicebox tabs John Mayer - Belief tabs Guns N' Roses - Sweet Child o' mine tabs Guns N' Roses - November Rain tabs Foo Fighters - Everlong (acústico)
e-chords

Other versions:

tabs Alter Bridge - Wouldn't You Rather
auto scroll beats size up size down change color hide chords drawings
tab show chords e-chords YouTube Clip e-chords hide all tabs e-chords go to top tab

share