Alter Bridge

home > Alter Bridge

Blackbird Tab

Alter Bridge

Difficulty: ExpertExpert

by krwling

tuner correct add songbook print version text version save to e-mail
chordsukulelecavacokeyboardtabbassdrumsharmonicsflute Guitar Pro
chords

Blackbird

  		   Intro - Acoustic (Riff 1)				    1st, 3rd ending 
Eb--------------------|----------0--------|------------------|----------------| 
Bb------3--------3----|------3-------3----|------------------|---------------o| 
Gb--3-----3--2-----0--|--2-----2-------2--|--2---3---3-2-0---|------0-----0---| 
Db--------------------|-------------------|----------------0-|----0-----0-----| 
Ab--------------------|-------------------|------------------|--8-----8------o| 
Eb--3-3------3-3---0--|--2-2-----2-2---0--|--1-1-----1-1-----|----------------| 
    w/ Thumb  

   2nd Ending         4th ending 
Eb-----------------|   |-----------------| 
Bb----------------o|   |----------------o| 
Gb------0-----0----|   |------0----------| 
Db----0-----7------|   |----0-------0----| 
Ab--8-----8-------o|   |--8-------0-----o| 
Eb-----------------|   |--------6--------| 


   Heavy Guitar (Riff 2)		  slide notes 1st time through only 
Eb---------------|-------------|-------------|----------------| 
Bb---------------|-------------|-------------|---------------o| 
Gb---------------|-------------|-------------|--3--3--6\5--5--| 
Db---------------|-------------|-------------|--3--3--6\5--5--| 
Ab---------------|-------------|-------------|--1--1--0----0-o| 
Eb--3~~---5b6r5--|-2~~--5b6r5--|-1~~--5b6r5--|----------------| 

  Chorus - Listen to song for strum rhythm 
Eb------------|----------|-----------|-----------|------------|-----------| 
Bb------------|----------|-----------|-----------|------------|-----------| 
Gb--8---------|-7--------|-----------|--0--------|--8---------|--7--------| 
Db--8---------|-7--------|--3--------|--2--------|--8---------|--7--------| 
Ab--6---------|-5--------|--3--------|--3--------|--6---------|--5--------| 
Eb--6---------|-5--------|--1--------|--0--------|--6---------|--5--------| 

Play through to Chorus again then: 

After 2nd Chorus (Fill 1) 
Eb---------------|-----------------| 
Bb---------------|-----------------| 
Gb---------------|-----------------| 
Db--5--5---7--7--|--8--8---10--10--| 
Ab---------------|-----------------| 
Eb--3--3---5--5--|--6--6---8---8---| 


Play Chorus again except last bar (Db Chord)  
Both Guitars (Riff 3) 
Eb------------|------------|---------------|-----------|--------------|-----------| 
Bb------------|------------|---------------|-----------|--------------|-----------| 
Gb--7---------|-7----------|--8-7---8-7-5--|--7--------|--------------|--7--------| 
Db--8---------|-7----------|--8-7---8-7-5--|--7--------|------4-5-4---|--7--------| 
Ab------------|-5----------|--6-5---6-5-3--|--5--------|--5-6-------6-|--5--------| 
Eb--6---------|-5----------|--6-5---6-5-3--|--5--------|--------------|--5--------| 

					       Start Interlude, {Gtr. 2}    	 
Eb---------------|-----------|----------------|-------------|--------| 
Bb---------------|-----------|----------------|-------------|--------| 
Gb--8-7---8-7-5--|--7--------|----------------|-------------|--------| 
Db--8-7---8-7-5--|--7--------|------4-8-7-/10-|-------------|--------| 
Ab--6-5---6-5-3--|--5--------|--5-6-----------|-{10~~----5--|--8~}---| 
Eb--6-5---6-5-3--|--5--------|----------------|--3----------|--------| 


Clean Tone Gtr. 1 
Interlude - Play 16 times & end on this note 

Eb-----------15----13------|--15------| 
Bb--------12----12----12--o|----------| 
Gb--12-12------------------|----------| 
Db-------------------------|----------| 
Ab------------------------o|----------| 
Eb-------------------------|----------| 


After first 8 bars, Gtr. 2 play Riff 4: 
Eb--------------------|--------------------|---------------------|-------------------| 
Bb--------------------|--------------------|---------------------|----------/6-------| 
Gb------5---7-5---5h7-|------5---8-7---5h7-|------5---7--5---5h7-|------5------8p7p5-| 
Db--5-5---5-----5-----|--5-5---5-----5-----|--5-5---5------5-----|--5-5---5----------| 
Ab--------------------|--------------------|---------------------|-------------------| 
Eb--------------------|--------------------|---------------------|-------------------| 

Eb---------------------|------------------|--------------------|----------------| 
Bb---------------------|------------------|--------------------|----------------| 
Gb-------5---5p3-2-3h5-|------7---7-5p3p2-|------5---7-5---5h7-|------5---5/7~--| 
Db---5-5---5-----------|--5-5---5---------|--5-5---5-----5-----|--5-5---5-------| 
Ab---------------------|------------------|--------------------|----------------| 
Eb---------------------|------------------|--------------------|----------------| 


Riff 5 played 2x, as singing begins 
Eb-------------------|----------------|------------------|-------------| 
Bb-------------------|----------------|------3---3p2--0--|--2--2--2--2-| 
Gb-------3----3p2-0--|--2---3p2-------|------------------|-------------| 
Db---5-5-------------|-----------5--5-|--5---------------|-------------| 
Ab-------------------|----------------|------------------|-------------| 
Eb-------------------|----------------|------------------|-------------| 

Eb-------------------|----------------|-----------------|-----------------| 
Bb-------------------|----------------|-----------------|-----------------| 
Gb------3----3p2-0---|-------------5--|------3-------3--|-----0--2--2b3r2-| 
Db---0---------------|--4--5---5p4----|--0-------0------|--0--------------| 
Ab-------------------|----------------|-----------------|-----------------| 
Eb-------------------|----------------|-----------------|-----------------| 

Eb-------------------|----------------|------------------|---------------| 
Bb-------------------|----------------|------3---3p2--0--|--5--3--2/3--2-| 
Gb-------3----3p2-0--|--2---2b3r2-----|------------------|---------------| 
Db---5-5-------------|-----------5--5-|--5---------------|---------------| 
Ab-------------------|----------------|------------------|---------------| 
Eb-------------------|----------------|------------------|---------------| 

Eb-------------------|----------------|-----------------|-----------------| 
Bb-------------------|----------------|-----------------|-----------------| 
Gb------3----3p2-0---|----------------|------0-------0--|------0-------0--| 
Db---0---------------|--4--5---5p4--0-|--0-------0------|--0-------0------| 
Ab-------------------|----------------|-----------------|-----------------| 
Eb-------------------|----------------|-----------------|-----------------| 

As Riff 5 begins 2nd time, Solo Begins 


Solo w/ Warm Dist.			 prebend  
Eb-----------|--------|----------------|--------|-----------------| 
Bb-----------|--------|----------------|--------|-----------------| 
Gb--x------5-|--------|-----------3-5--|-b8r5b8-|----------3--5p3-| 
Db--x-----x--|--5~~~--|--(5)~~--5------|--------|--------5--------| 
Ab-----------|--------|----------------|--------|--6~-------------| 
Eb----12\----|--------|----------------|--------|-----------------| 
		Hold bend				      {play 3x} 
Eb---------3-|---------------|----------------|----------------------------| 
Bb-----------|---------------|----------------|-15-------------------------| 
Gb---5b7~----|-(7)r5-5-3-5b7-|-(7)r5-3--------|-15-------------------------| 
Db-----------|---------------|---------5~-/17-|----17-15-17-15-------------| 
Ab-----------|---------------|----------------|---------------{pb16r15-13}-| 
Eb-----------|---------------|----------------|----------------------------| 

Eb----------------------|-------------------|------|-----------15--17--18-17-| 
Bb----------------------|-----15---15-------|--16~~|-(16~)--/18--18----------| 
Gb----------------------|-------------17-15-|------|-------------------------| 
Db---------17-15--15-17-|-/17---17----------|------|-------------------------| 
Ab-----17---------------|-------------------|------|-------------------------| 
Eb--15~--15-------------|-------------------|------|-------------------------| 

Eb--18b20~~-15---|--18b20~~-15---|--15~-17~-|--18--20-20-20b22r20-|--18~~ 
Bb------------18-|------------17-|----------|---------------------|------ 
Gb---------------|---------------|----------|---------------------|------ 
Db---------------|---------------|----------|---------------------|------ 
Ab---------------|---------------|----------|---------------------|------ 
Eb---------------|---------------|----------|---------------------|------ 


  Solo 2 w/ Heavy Dist. (Overlaps as solo 1 ends)  
  - other Guitar plays Chorus					   PH 
Eb--15-17-|-18~~--17b18r17-15------|--17~~--15h17p15-15------15~-|-*14-------------------| 
Bb--------|------------------18-15-|-------------------18-15-15~-|-------15-b16r15b16r15-| 
Gb--------|------------------------|-----------------------------|-----17----------------| 
Db--------|------------------------|-----------------------------|-----------------------| 
Ab--------|------------------------|-----------------------------|-----------------------| 
Eb--------|------------------------|-----------------------------|-----------------------| 

Eb---------------------------15-|-15--18-15---------------------------| 
Bb---------------------------15-|----------15-18b20-18-15-18-15-------| 
Gb-------------------------15---|------------------------------17-15--| 
Db------------------------------|-------------------------------------| 
Ab--b16r15-13--15--13-15--------|-------------------------------------| 
Eb-----------15--15-------------|-------------------------------------| 

                   w/ wah______________________________________________________ 
Eb-------------------------------------------------------|-----------------------| 
Bb--18-15----15------------------------------------------|-----------------------| 
Gb--------15----17---------------------------------------|-----------------------| 
Db-----------------17-T20-p17-p15-p13--------------------|-----------------------| 
Ab------------------------------------18-T20-p18-p15-p13-|-*13-15-13-15-12-13-12-| 
Eb-------------------------------------------------------|-----------------------| 

Eb------------15-------|-------------------|-------------|--------17----x\-| 
Bb------------15-------|-/18--18-20-18~~---|-(18~)-------|-/18-18---18~-x\-| 
Gb--15-17-15-----14-15-|-------------------|-------14-15-|-----------------| 
Db---------------------|-------------------|-------------|-----------------| 
Ab---------------------|-------------------|-------------|-----------------| 
Eb---------------------|-------------------|-------------|-----------------| 
				 
			       Play 4x				          TP 
Eb-------18-----18--------|-{b20r18-------|--20b22-18b20------20b22-20b22-15-| 
Bb--18b20--18b20---18b20~-|--------20-18}-|-------------20-18----------------| 
Gb------------------------|---------------|----------------------------------| 
Db------------------------|---------------|----------------------------------| 
Ab------------------------|---------------|----------------------------------| 
Eb------------------------|---------------|----------------------------------| 

     Play 2x 
Eb-{20-15-18-15-17-15-18-15}-|-15-h17-h18-p17-p15-h17-h18-p17-p15--- 
Bb---------------------------|-------------------------------------- 
Gb---------------------------|-------------------------------------- 
Db---------------------------|-------------------------------------- 
Ab---------------------------|-------------------------------------- 
Eb---------------------------|-------------------------------------- 

Eb-----------------------------------|-------    
Bb--16-18-16-15-------------15-16-18-|-------    
Gb-------------17~-16-17-16----------|-------   
Db-----------------------------------|-/17~~-    
Ab-----------------------------------|------- 
Eb-----------------------------------|------- 

As solo ends play Chorus, fill 1, Chorus 

Then play Riff 2 4x, with Guitar 2 playing the interlude notes w/ distortion  
during the last 2 times 

Riff 1 plays 4x 

Outro, as Riff 1 ends the 2nd time 
w/ warm distortion	tb - tremelo bar dive 
Eb------|----------|-------|----------|------------|-------|-------|-------|-------|---| 
Bb------|----------|-------|----------|------------|--9----|-------|-------|-------|---| 
Gb--5~~-|--(5~)tb--|--8~~--|--(8~)tb--|--10~~-8h10-|-------|---3-5-|-5b6r5-|-5b6r5-|---|  
Db------|----------|-------|----------|------------|-------|-------|-------|-------|-5-| 
Ab------|----------|-------|----------|------------|-------|-------|-------|-------|---| 
Eb------|----------|-------|----------|------------|-------|-------|-------|-------|---| 

Key: 

| /  slide up 
| \  slide down 
| PM palm mute 
| PH pinch harmonic 
| h  hammer-on 
| p  pull-off 
| ~  vibrato 
| *  harmonic 
| x  Mute note (or rake) 
| b  bend (bends with vibrato bar indicated) 
| r  release bend 
| TP tremelo pick 
==================================================== 
	  

Full key step upFull key step up
Half key step upHalf key step up
Half key step downHalf key step down
Full key step downFull key step down
Search Paypal
auto scroll beats size up size down change color hide chords drawings
tab show chords e-chords YouTube Clip e-chords hide all tabs e-chords go to top tab