Alter Bridge

Ties That Blind

Alter Bridge

tabs

by  ADALGOMES

save to print version add songbook text version e-mail correct tuner
chordsukulelecavacokeyboardtabbassdrumsharmonicaflute Guitar Pro
close

there isn't a video lesson for this song

chords

Ties That Blind

	  		  Gtr I

  S S S S +S  S S S S S +S  S
|-----------------------------|
|-----------------------------|
|-----------------------------|
|-----------------------------|
|-------3-(3)-0-------0-(0)-0-|
|-1-1-1---------1-1-1---------|




  S S S S +S  S S S S S +S  S   S S S S +S  S S S S S +S  S
|-----------------------------|-----------------------------|
|-----------------------------|-----------------------------|
|-----------------------------|-----------------------------|
|-----------------------------|-----------------------------|
|-------3-(3)-2-------0-(0)-2-|-------5-(5)-0-------0-(0)-0-|
|-0-0-0---------0-0-0---------|-3-3-3---------3-3-3---------|




  S S S S +S  S S S S S +S  S   S S S S +S  S S S S S +S  S
|-----------------------------|-----------------------------|
|-----------------------------|-----------------------------|
|-----------------------------|-----------------------------|
|-----------------------------|-----------------------------|
|-------3-(3)-0-------0-(0)-0-|-------3-(3)-0-------0-(0)-0-|
|-1-1-1---------1-1-1---------|-1-1-1---------1-1-1---------|




  S S S S +S  S S S S S +S  S
|------------------------------|
|------------------------------|
|------------------------------|
|-------5-(5)-0-------0-(0)-0--|
|-3-3-3---------3-3-3----------|
|------------------------------|




  S S S S +S  S S S S S +S  S   S S S S +S  S S S S S +S  S
|-----------------------------|-----------------------------|
|-----------------------------|-----------------------------|
|-------------4-------------4-|-------------5-------4-(4)---|
|-------2-(2)---------2-(2)---|-------2-(2)---------------5-|
|-0-0-0---------0-0-0---------|-0-0-0---------0-0-0---------|
|-----------------------------|-----------------------------|




  S S S S +S  S S S S S +S  S   S S S S +S  S S S S S +S  S
|-----------------------------|-----------------------------|
|-----------------------------|-----------------------------|
|-----------------------------|-----------------------------|
|-----------------------------|-----------------------------|
|-------3-(3)-0-------0-(0)-0-|-------3-(3)-2-------0-(0)-2-|
|-1-1-1---------1-1-1---------|-0-0-0---------0-0-0---------|




  S S S S +S  S S S S S +S  S
|------------------------------|
|------------------------------|
|------------------------------|
|------------------------------|
|-------5-(5)-0-------0-(0)-0--|
|-3-3-3---------3-3-3----------|




  S  S S S +S  S S S S S +S  S
|------------------------------|
|------------------------------|
|------------------------------|
|------------------------------|
|--------3-(3)-0-------0-(0)-0-|
|-1--1-1---------1-1-1---------|

|
| Gtr III

| H.
|------------------------------|
|------------------------------|
|------------------------------|
|------------------------------|
|------------------------------|
|------------------------------|




  S S S S +S  S S S S S +S  S   S S S S +S  S S S S S +S  S
|-----------------------------|------------------------------|
|-----------------------------|------------------------------|
|-----------------------------|------------------------------|
|-----------------------------|------------------------------|
|-------3-(3)-0-------0-(0)-0-|-------5-(5)-0-------0-(0)-0--|
|-1-1-1---------1-1-1---------|-3-3-3---------3-3-3----------|

|

| S S S S +S  S S S S S +S  S   S S S S +S  S S S S S +S  S
|-----------------------------|------------------------------|
|-----------------------------|-------------0-------0-(0)-0--|
|-------5-(5)-2-------2-(2)-2-|-------7-(7)------------------|
|-3-3-3---------3-3-3---------|-5-5-5---------5-5-5----------|
|-----------------------------|------------------------------|
|-----------------------------|------------------------------|




  S S S S +S  S S S S S +S  S   S S S S +S  S S S S S +S  S
|-----------------------------|-----------------------------||
|-----------------------------|-----------------------------||
|-----------------------------|-----------------------------||
|-----------------------------|-----------------------------||
|---0---7-(7)-0---0---0-(0)-0-|---0---7-(7)-0---0---0-(0)-0-||
|-5---5---------5---5---------|-5---5---------5---5---------||

|

| S S S S +S  S S S S S +S  S   S S S S +S  S S S S S +S  S
|-------7-(7)-----------------|-------7-(7)-----------------||
|-----------------------------|-----------------------------||
|---9---------9---9---9-(9)-9-|---9---------9---9---9-(9)-9-||
|-7---7---------7---7---------|-7---7---------7---7---------||
|-----------------------------|-----------------------------||
|-----------------------------|-----------------------------||



   Pre-Verse
    Gtrs II, III
    PM----------------------------------------------|

    S S S S S S S S S S S S   S S S S S S S S S S S S
||--------------------------|--------------------------|
||o-------------------------|--------------------------|
||--------------------------|--------------------------|
||--------------------------|--------------------------|
||o-------5-----------------|-------5-----------8-7-5--|
||--0-1-0---0-0-0-3-0-3-2-0-|-0-1-0---0-0-0-3-0--------|



                            1.
  PM----------------------------------------------|

  S S S S S S S S S S S S   S S S S S S S S S S S S
|-------------------------|--------------------------||
|-------------------------|-------------------------o||
|-------------------------|-----------------7-5------||
|-------------------------|-------------7-0-----7-0--||
|-------5-----------------|-------5-----------------o||
|-0-1-0---0-0-0-3-0-3-2-0-|-0-1-0---0-0--------------||



                     Verse
  2.
               Gtr II
  PM----|             PM--------------|         PM--------------------|

  S S S S Q  S  E.    S S S S S S S S S S S S   S S S S S S S S S S S S
|------------------||-------------------------|--------------------------|
|------------------||-------------------------|--------------------------|
|--------------<5>-||-------------------------|--------------------------|
|------------------||-------------------------|--------------------------|
|-------5----------||-------5-----------------|-------5-----------8-7-5--|
|-0-1-0------------||-0-1-0---0-0---0---0-0-0-|-0-1-0---0-0-0-3-0--------|



  PM------------|           PM----------------|       PM------------|

  S S S S S S S S S S S S   S S S S S S S S S S S S   S S S S S S S S S S S S
|-------------------------|-------------------------|--------------------------|
|-------------------------|-------------------------|--------------------------|
|-------------------------|-------------------------|--------------------------|
|-------------------------|-------------------------|--------------------------|
|-------5-----------------|-------5-------------3-5-|-------5------------------|
|-0-1-0---0-0---0---0-0-0-|-0-1-0---0-0-0-3-0-6-----|-0-1-0---0-0---0---0-0-0--|



  PM--------------------------------------|                     PM

  S S S S S S S S S S S S   S S S S S S S S S S S S   S S S S S S S S  Q
|-------------------------|-------------------------|-----------------------||
|-------------------------|-------------------------|-----------------------||
|-------------------------|-------------------------|-----------------------||
|-------------------------|-------------------------|-----------------12\---||
|-------5-----------8-7-5-|-------5-----------------|-----------------12\---||
|-0-1-0---0-0-0-3-0-------|-0-1-0---0-0---0---0-0-0-|---0---0-0-0---0-12\---||



 Chorus
  $
  Gtrs II, III

  Q.   S. Q  +T    Q.   S. Q  +T    Q.   S. Q  +T    Q.   S. Q  +T
|----------------|----------------|----------------|-----------------|
|----------------|----------------|----------------|-----------------|
|----------------|----------------|----------------|-----------------|
|-3----3--3--(3)-|-2----2--2--(2)-|-5----5--5--(5)-|-3----3--3--(3)--|
|-3----3--3--(3)-|-2----2--2--(2)-|-5----5--5--(5)-|-3----3--3--(3)--|
|-1----1--1--(1)-|-0----0--0--(0)-|-3----3--3--(3)-|-1----1--1--(1)--|




  Q.   S. Q  +T    Q.   S. Q  +T    Q.   S. Q  +T
|----------------|----------------|----------------|
|----------------|----------------|----------------|
|----------------|-5----5--5--(5)-|-2----2--2--(2)-|
|-3----3--3--(3)-|-5----5--5--(5)-|-2----2--2--(2)-|
|-3----3--3--(3)-|-3----3--3--(3)-|-0----0--0--(0)-|
|-1----1--1--(1)-|----------------|----------------|



  Gtr II                    Gtrs II, III

  S S S S S S S S S S S S   Q.   S. Q  +T    Q.   S. Q  +T
|-------------------------|----------------|----------------|
|-------------------------|----------------|----------------|
|-5-4-2-------------------|----------------|----------------|
|-------5-4-2-------------|-3----3--3--(3)-|-2----2--2--(2)-|
|-------------5-4-2-------|-3----3--3--(3)-|-2----2--2--(2)-|
|-------------------3-2-0-|-1----1--1--(1)-|-0----0--0--(0)-|




  Q.   S. Q  +T    Q.   S. Q  +T    Q.   S. Q  +T
|----------------|----------------|----------------|
|----------------|----------------|----------------|
|----------------|----------------|----------------|
|-5----5--5--(5)-|-3----3--3--(3)-|-3----3--3--(3)-|
|-5----5--5--(5)-|-3----3--3--(3)-|-3----3--3--(3)-|
|-3----3--3--(3)-|-1----1--1--(1)-|-1----1--1--(1)-|



                                                To Coda
                           Gtr II

  Q.   S. Q  +T    Q.   Q  S S   S S S S S S S S S S S S
|----------------|-------------|-------------------------||
|----------------|-------------|-------------------------||
|-5----5--5--(5)-|-2----2--2-4-|-5-2-4-5-----------------||
|-5----5--5--(5)-|-2----2------|---------2-3-3-0-2-3-0-2-||
|-3----3--3--(3)-|-0----0------|-------------------------||
|----------------|-------------|-------------------------||



 Interlude
  Gtrs II, III
  PM----------------------------------------------|

  S S S S S S S S S S S S   S S S S S S S S S S S S
|-------------------------|-------------------------|
|-------------------------|-------------------------|
|-------------------------|-------------------------|
|-------------------------|-------------------------|
|-------5-----------------|-------5-----------8-7-5-|
|-0-1-0---0-0-0-3-0-3-2-0-|-0-1-0---0-0-0-3-0-------|



  PM------------------------------|

  S S S S S S S S S S S S   S S S S Q  S  E.
|-------------------------|------------------||
|-------------------------|------------------||
|-------------------------|--------------<5>-||
|-------------------------|------------------||
|-------5-----------------|-------5----------||
|-0-1-0---0-0-0-3-0-3-2-0-|-0-1-0------------||



 Verse 2
  Gtr II
  PM--------------|         PM----------------------------------------|

  S S S S S S S S S S S S   S S S S S S S S S S S S   S S S S S S S S S S S S
|-------------------------|-------------------------|--------------------------|
|-------------------------|-------------------------|--------------------------|
|-------------------------|-------------------------|--------------------------|
|-------------------------|-------------------------|--------------------------|
|-------5-----------------|-------5-----------8-7-5-|-------5------------------|
|-0-1-0---0-0---0---0-0-0-|-0-1-0---0-0-0-3-0-------|-0-1-0---0-0---0---0-0-0--|

|
| Gtr III

| S S S S S S S S S S S S   S S S S S S S S S S S S   S S S S S S S S S S S S
|-------------------------|-------------------------|--------------------------|
|-------------------------|-------------------------|--------------------------|
|-9-9-9-9-9-9-9-9-9-9-9-9-|-9-9-9-9-9-9-9-9-9-9-9-9-|-9-9-9-9-9-9-9-9-9-9-9-9--|
|-------------------------|-------------------------|--------------------------|
|-------------------------|-------------------------|--------------------------|
|-------------------------|-------------------------|--------------------------|



  PM----------------|       PM------------|           PM--------------------|

  S S S S S S S S S S S S   S S S S S S S S S S S S   S S S S S S S S S S S S
|-------------------------|-------------------------|--------------------------|
|-------------------------|-------------------------|--------------------------|
|-------------------------|-------------------------|--------------------------|
|-------------------------|-------------------------|--------------------------|
|-------5-------------3-5-|-------5-----------------|-------5-----------8-7-5--|
|-0-1-0---0-0-0-3-0-6-----|-0-1-0---0-0---0---0-0-0-|-0-1-0---0-0-0-3-0--------|

|

| S S S S S S S S S S S S   S S S S S S S S S S S S   S S S S S S S S S S S S
|-------------------------|-------------------------|--------------------------|
|-------------------------|-------------------------|--------------------------|
|-9-9-9-9-9-9-9-9-9-9-9-9-|-9-9-9-9-9-9-9-9-9-9-9-9-|-9-9-9-9-9-9-9-9-9-9-9-9--|
|-------------------------|-------------------------|--------------------------|
|-------------------------|-------------------------|--------------------------|
|-------------------------|-------------------------|--------------------------|



                                        D.S.
  PM------------|                     PM

  S S S S S S S S S S S S   S S S S S S S S  Q
|-------------------------|---------------------------||
|-------------------------|---------------------------||
|-------------------------|---------------------------||
|-------------------------|-----------------12\-------||
|-------5-----------------|-----------------12\-------||
|-0-1-0---0-0---0---0-0-0-|---0---0-0-0---0-12\-------||

|

| S S S S S S S S S S S S   S S S S S S S S  S  S S S
|-------------------------|---------------------------||
|-------------------------|---------------------------||
|-9-9-9-9-9-9-9-9-9-9-9-9-|-9-9-9-9-9-9-9-9--9--9-9-9-||
|-------------------------|---------------------------||
|-------------------------|---------------------------||
|-------------------------|---------------------------||



 Interlude
  &
  Gtr III

  H     +Q     +H            +Q     +H.         H.
|------------|--------------------|----------|---------------|
|------------|--------------------|----------|---------------|
|------------|--------------------|----------|---------------|
|-2-----(2)--|-(2)-----------(2)--|-(2)------|---------------|
|-2-----(2)--|-(2)-----------(2)--|-(2)------|-/7------------|
|-0-----(0)--|-(0)-----------(0)--|-(0)------|---------------|

|
| Gtr II
| TP            TP    TP  TP  TP     TP         ~~~

| H.           +Q.   +S   S  +Q      H.         H       Q
|------------|--------------------|----------|---------------|
|-9----------|-(9)---(9)s13-(13)--|-12-------|-12-----(12)\--|
|------------|--------------------|----------|---------------|
|------------|--------------------|----------|---------------|
|------------|--------------------|----------|---------------|
|------------|--------------------|----------|---------------|




  S  S S S S S S S S S S    S  S  S S  S S  S   S S  S S  S
|------------------------|----------------------------------|
|------------------------|----------------------------------|
|------------------------|------------------------7----7----|
|------------------------|-10----10---10---10---------------|
|-7----7---7---7---7---7-|----------------------------------|
|------------------------|----------------------------------|

|
| TP                        TP              TP  TP   TP   TP

| H.                       +Q.             +S   E    E    S
|------------------------|----------------------------------|
|-9----------------------|-(9)-------------(9)-13---15---13-|
|------------------------|----------------------------------|
|------------------------|----------------------------------|
|------------------------|----------------------------------|
|------------------------|----------------------------------|



   ~~~~~~~~~~~~~~

   H.        +H.
|----------|----------------||
|----------|----------------||
|--9-------|-(9)------------||
|----------|----------------||
|----------|----------------||
|----------|----------------||

|
|  TP         ~~~

|  H.         H       Q
|----------|----------------||
|-12-------|-12-----(12)\---||
|----------|----------------||
|----------|----------------||
|----------|----------------||
|----------|----------------||



 Bridge
  PM---------------------|

  S  S S S S S S S S S S S    H.
|--------------------------|--------------------|
|--------------------------|--------------------|
|--------------------------|--------------------|
|--------------------------|--------------------|
|--------------------------|--------------------|
|-0--1-0-3-0-3-0-1-0-3-0-1-|--------------------|

|
| TP                          TP    TP  TP  TP

| H.                         +Q.   +S   S  +Q
|--------------------------|--------------------|
|-9------------------------|-(9)---(9)s13-(13)--|
|--------------------------|--------------------|
|--------------------------|--------------------|
|--------------------------|--------------------|
|--------------------------|--------------------|



   PM---------------------|

   S  S S S S S S S S S S S    H.
|---------------------------|----------------|
|---------------------------|----------------|
|---------------------------|----------------|
|---------------------------|----------------|
|---------------------------|----------------|
|--0--1-0-3-0-3-0-1-0-3-0-1-|----------------|

|
|  TP                          ~~~

|  H.                          H       Q
|---------------------------|----------------|
|-12------------------------|-12-----(12)\---|
|---------------------------|----------------|
|---------------------------|----------------|
|---------------------------|----------------|
|---------------------------|----------------|




  S  S S S S S S S S S S S    S  S S S S S  S   S S  S S  S
|--------------------------|--------------------------------|
|--------------------------|--------------------------------|
|--------------------------|--------------------------------|
|--------------------------|--------------------------------|
|--------5---5-------7---7-|---------8---8------5----8-7--5-|
|-0--1-0---0---0-1-0---0---|--0--1-0---0----0-----0---------|

|
| TP                          TP            TP  TP   TP   TP

| H.                         +Q.           +S   E    E    S
|--------------------------|--------------------------------|
|-9------------------------|-(9)-----------(9)-13---15---13-|
|--------------------------|--------------------------------|
|--------------------------|--------------------------------|
|--------------------------|--------------------------------|
|--------------------------|--------------------------------|




   S  S S S S S S S S S S S
|----------------------------|
|----------------------------|
|----------------------------|
|----------------------------|
|---------5---5-------7---7--|
|--0--1-0---0---0-1-0---0----|

|
|  TP

|  H.
|----------------------------|
|-12-------------------------|
|----------------------------|
|----------------------------|
|----------------------------|
|----------------------------|



                             Interlude

  S S S S S S S S S S S S     S S S S S S S S S S S S
|-------------------------||--------------------------|
|-------------------------||o-------------------------|
|-------------------------||--------------------------|
|-------------------------||--------------------------|
|-------8---8---5---8-7-5-||o-------5-----------7-----|
|-0-1-0---0---0---0-------||--0-1-0---0-1-0-1-0---0-1-|

|

| S S S S S S S S S S S S     S S S S S S S S S S S S
|-------------------------||--------------------------|
|-------------------------||o-------------------------|
|-------------------------||--------------------------|
|-------------------------||--------------------------|
|-------8---8---5---8-7-5-||o-------5-----------7-----|
|-0-1-0---0---0---0-------||--0-1-0---0-1-0-1-0---0-1-|




  S S S S S S S S S S S S
|---------------------------||
|--------------------------o||
|---------------------------||
|---------------------------||
|-------8-------5---7---8--o||
|-0-1-0---0-1-0---0---0-----||

|

| S S S S S S S S S S S S
|---------------------------||
|--------------------------o||
|---------------------------||
|---------------------------||
|-------8-------5---7---8--o||
|-0-1-0---0-1-0---0---0-----||



 Chorus
  Gtr II
  PM---|     PM-----|           PM---|     PM-----|

  S  S S E S S  S   S E S       S  S S E S S  S   S E S
|-----------------------------|-----------------------------|
|-----------------------------|-----------------------------|
|--------5-2----------2-2-----|--------5-2----------2-2-----|
|-3--3-3-----3--3---3---------|-2--2-2-----2--2---2---------|
|-----------------------------|-----------------------------|
|-----------------------------|-----------------------------|

|
| Gtr III

| Q.         S.   Q       +T    Q.         S.   Q       +T
|-----------------------------|-----------------------------|
|-----------------------------|-----------------------------|
|-----------------------------|-----------------------------|
|-3----------3----3-------(3)-|-2----------2----2-------(2)-|
|-3----------3----3-------(3)-|-2----------2----2-------(2)-|
|-1----------1----1-------(1)-|-0----------0----0-------(0)-|



  PM---|     PM-----|

  S  S S E S S  S   S E S
|------------------------------|
|------------------------------|
|--------7-4----------4-4------|
|-5--5-5-----5--5---5----------|
|------------------------------|
|------------------------------|

|

| Q.         S.   Q       +T
|------------------------------|
|------------------------------|
|------------------------------|
|-5----------5----5-------(5)--|
|-5----------5----5-------(5)--|
|-3----------3----3-------(3)--|



  PM---|     PM-----|           PM---|     PM-----|

  S  S S E S S  S   S E S       S  S S E S S  S   S E S
|-----------------------------|-----------------------------|
|-----------------------------|-----------------------------|
|--------5-2----------2-2-----|--------5-2----------2-2-----|
|-3--3-3-----3--3---3---------|-3--3-3-----3--3---3---------|
|-----------------------------|-----------------------------|
|-----------------------------|-----------------------------|

|

| Q.         S.   Q       +T    Q.         S.   Q       +T
|-----------------------------|-----------------------------|
|-----------------------------|-----------------------------|
|-----------------------------|-----------------------------|
|-3----------3----3-------(3)-|-3----------3----3-------(3)-|
|-3----------3----3-------(3)-|-3----------3----3-------(3)-|
|-1----------1----1-------(1)-|-1----------1----1-------(1)-|



  PM---|     PM-----|

  S  S S E S S  S   S E S
|------------------------------|
|--------8---------------------|
|----------9----------7-9------|
|-7--7-7-----7--7---7----------|
|------------------------------|
|------------------------------|

|

| Q.         S.   Q       +T
|------------------------------|
|------------------------------|
|-5----------5----5-------(5)--|
|-5----------5----5-------(5)--|
|-3----------3----3-------(3)--|
|------------------------------|



  PM---|     PM-----|           PM--|       PM--|

  S  S S E S S  S   S E S       S S S E   S S S S E   S
|-----------------------------|-------------------------|
|-----------------------------|-------------------------|
|--------9-9----------9-9-----|-------9---9-------9---9-|
|-7--7-7-----7--7---7---------|-7-7-7-------7-7-7-------|
|-----------------------------|-------------------------|
|-----------------------------|-------------------------|

|

| Q.         S.   Q       +T    S S S S S S S S S S S S
|-----------------------------|-------------------------|
|-----------------------------|-------------------------|
|-2----------2----2-------(2)-|-5-4-2-------------------|
|-2----------2----2-------(2)-|-------5-4-2-------------|
|-0----------0----0-------(0)-|-------------5-4-2-------|
|-----------------------------|-------------------3-2-0-|



  PM---|      PM-----|

  S  S S  E S S  S   S E S
|-------------------------------|
|-------------------------------|
|--------10-9----------7-9------|
|-7--7-7------7--7---7----------|
|-------------------------------|
|-------------------------------|

|

| Q.          S.   Q       +T
|-------------------------------|
|-------------------------------|
|-------------------------------|
|-3-----------3----3-------(3)--|
|-3-----------3----3-------(3)--|
|-1-----------1----1-------(1)--|



  PM---|     PM-----|           PM---|     PM-----|

  S  S S E S S  S   S E S       S  S S E S S  S   S E S
|-----------------------------|-----------------------------|
|-----------------------------|--------8--------------------|
|--------5-7----------5-7-----|----------7----------7-7-----|
|-5--5-5-----5--5---5---------|-5--5-5-----5--5---5---------|
|-----------------------------|-----------------------------|
|-----------------------------|-----------------------------|

|

| Q.         S.   Q       +T    Q.         S.   Q       +T
|-----------------------------|-----------------------------|
|-----------------------------|-----------------------------|
|-----------------------------|-----------------------------|
|-2----------2----2-------(2)-|-5----------5----5-------(5)-|
|-2----------2----2-------(2)-|-5----------5----5-------(5)-|
|-0----------0----0-------(0)-|-3----------3----3-------(3)-|



  PM---|     PM-----|

  S  S S E S S  S   S E S
|------------------------------|
|--------8---------------------|
|----------7-------------------|
|-5--5-5-----5--5---5----------|
|---------------------5-5------|
|------------------------------|

|

| Q.         S.   Q       +T
|------------------------------|
|------------------------------|
|------------------------------|
|-3----------3----3-------(3)--|
|-3----------3----3-------(3)--|
|-1----------1----1-------(1)--|



  PM---|     PM-----|

  S  S S E S S  S   S E S
|-----------------------------|
|-----------------------------|
|--------9-9----------9-9-----|
|-7--7-7-----7--7---7---------|
|-----------------------------|
|-----------------------------|

|

| Q.         S.   Q       +T
|-----------------------------|
|-----------------------------|
|-----------------------------|
|-3----------3----3-------(3)-|
|-3----------3----3-------(3)-|
|-1----------1----1-------(1)-|



  PM---|     PM-----|           PM---|     PM--|

  S  S S E S S  S   S E S       S  S S E S S S S E   S
|-----------------------------|------------------------|
|--------8--------------------|------------------------|
|----------9----------7-9-----|--------9-9-------9---9-|
|-7--7-7-----7--7---7---------|-7--7-7-----7-7-7-------|
|-----------------------------|------------------------|
|-----------------------------|------------------------|

|

| Q.         S.   Q       +T    Q.         Q       S S
|-----------------------------|------------------------|
|-----------------------------|------------------------|
|-5----------5----5-------(5)-|-2----------2-------2-4-|
|-5----------5----5-------(5)-|-2----------2-----------|
|-3----------3----3-------(3)-|-0----------0-----------|
|-----------------------------|------------------------|



  PM--|       PM--|

  S S S E   S S S S E   S
|-------------------------||
|-------------------------||
|-------9---9-------9---9-||
|-7-7-7-------7-7-7-------||
|-------------------------||
|-------------------------||

|

| S S S S S S S S S S S S
|-------------------------||
|-------------------------||
|-5-2-4-5-----------------||
|---------2-3-3-0-2-3-0-2-||
|-------------------------||
|-------------------------||



 Guitar Solo
                                     ~~

  H                 +S  S     S  S   H.
|----------------------------------|---------------------------|
|----------------------------------|---------------------------|
|-7b9---------------(7)-7pb9r(7)-5-|-7-------------------------|
|----------------------------------|---------------------------|
|----------------------------------|---------------------------|
|----------------------------------|---------------------------|

|

| S   S S S S S S S  S  S     S  S   S  S S S S S S S S S S S
|----------------------------------|---------------------------|
|----------------------------------|---------------------------|
|----------------------------------|---------------------------|
|----------------------------------|---------------------------|
|-3---3-3-3-3-3-3-3--3--3-----3--3-|-2--2-2-2-2-2-2-2-2-2-2-2--|
|-1---1-1-1-1-1-1-1--1--1-----1--1-|-0--0-0-0-0-0-0-0-0-0-0-0--|



                          ~~~~~~~~~~~~~~~~~~~~~~~~~~

  E     S E   S E   S E   S   +H                +E     S S
|---------------------------|------------------------------|
|---------------------------|------------------------------|
|-7b9---5-----------------5-|-(5)---------------(5)---(5)--|
|---------7---7-7---7-7-----|------------------------------|
|---------------------------|-------------------------10p7-|
|---------------------------|------------------------------|

|

| S   S S S S S S S S S S S    S  S S S S S S S  S  S  S S
|---------------------------|------------------------------|
|---------------------------|------------------------------|
|---------------------------|------------------------------|
|---------------------------|------------------------------|
|-5---5-5-5-5-5-5-5-5-5-5-5-|--3--3-3-3-3-3-3-3--3--3--3-3-|
|-3---3-3-3-3-3-3-3-3-3-3-3-|--1--1-1-1-1-1-1-1--1--1--1-1-|




  S  S  +E     S S  S Q       +S
|----------------------------------|
|----------------------------------|
|----------------------------------|
|---------------------7-------(7)--|
|-7h10-(10)---10p7h10--------------|
|----------------------------------|

|

| S  S   S  S  S S  S S S S S  S
|----------------------------------|
|----------------------------------|
|----------------------------------|
|----------------------------------|
|-3--3---3--3--3-3--3-3-3-3-3--3---|
|-1--1---1--1--1-1--1-1-1-1-1--1---|




   S S S S  S S  E   E   +E      S  S S S S S  S S  S S  S S
|------------------------------|-----------------------------|
|------------------------------|-----------------------------|
|----7-9-7---------------------|-9-12-9-7-9-7----7-----------|
|-10-------10-7-10---7---(7)---|--------------10---10-9-10-9-|
|------------------------------|-----------------------------|
|------------------------------|-----------------------------|

|

|  S S S S  S S  S S S S  S  S   S  S S S S S  S S  S S  S S
|------------------------------|-----------------------------|
|------------------------------|-----------------------------|
|------------------------------|-----------------------------|
|--5-5-5-5--5-5----------------|-----------------------------|
|--3-3-3-3--3-3--5-5-5-5--5--5-|-7--7-7-7-7-7--7-7--7-7--7-7-|
|----------------3-3-3-3--3--3-|-5--5-5-5-5-5--5-5--5-5--5-5-|



               ~~~~~~~~~~~~~

  S  S S  E    Q        +E.
|--------------------------------|
|--------------------------------|
|--------------------------------|
|-7-----------10-------(10)------|
|---10-7-10----------------------|
|--------------------------------|

|

| S  S S  S S  S S S S   S  S S
|--------------------------------|
|--------------------------------|
|--------------------------------|
|--------------------------------|
|-7--7-7--7-7--7-7-7-7---7--7-7--|
|-5--5-5--5-5--5-5-5-5---5--5-5--|




   S  S  S  S  S  S  S  S  S  S  S  S
|-------------------------------------|
|-------------------------------------|
|-------------------------------------|
|-10-10-10-10-10-10-10-10-10-12-12-12-|
|-------------------------------------|
|-------------------------------------|

|

|  S  S  S  S  S  S  S  S  S  S  S  S
|-------------------------------------|
|-------------------------------------|
|-------------------------------------|
|-------------------------------------|
|--3--3--3--3--3--3--3--3--3--3--3--3-|
|--1--1--1--1--1--1--1--1--1--1--1--1-|




  S S S S S S S S S S S S   S S S S S S S S S  S  +S    S
|-------------------------|--------------------------------|
|-------------------------|--------------------------------|
|-------------------------|--------------------------------|
|-9-9-9-9-9-9-9-9-9-9-9-9-|-9-9-9-9-9-9-9-9-9-10-(10)------|
|-------------------------|---------------------------/10--|
|-------------------------|--------------------------------|

|

| S S S S S S S S S S S S   S S S S S S S S S  S   S    S
|-------------------------|--------------------------------|
|-------------------------|--------------------------------|
|-------------------------|--------------------------------|
|-------------------------|--------------------------------|
|-2-2-2-2-2-2-2-2-2-2-2-2-|-5-5-5-5-5-5-5-5-5--5---5----5--|
|-0-0-0-0-0-0-0-0-0-0-0-0-|-3-3-3-3-3-3-3-3-3--3---3----3--|




   +E     E    S  S  S  S  S  +S   S  S
|---------------------------------------|
|---------------------------------------|
|------------------------------------12-|
|--------10---12-14-12-10---------10----|
|-(10)--------------------12-(12)-------|
|---------------------------------------|

|

|   S  S  S S  S  S  S  S  S   S   S  S
|---------------------------------------|
|---------------------------------------|
|---------------------------------------|
|---------------------------------------|
|---3--3--3-3--3--3--3--3--3---3---3--3-|
|---1--1--1-1--1--1--1--1--1---1---1--1-|



                                                         |--6---|

   +Q         Q       E    E      E    E   Q.            S S    S
|------------------------------|---------------------------8---10--|
|------------------------------|------------------------10---------|
|-(12)-------10-------9---10---|-10--------------------------------|
|------------------------------|------10---9-----------------------|
|------------------------------|-----------------------------------|
|------------------------------|-----------------------------------|

|

|   S  S S S  S S S S S S  S S    S S  S S S  S S S S S  S   S
|------------------------------|-----------------------------------|
|------------------------------|-----------------------------------|
|------------------------------|-----------------------------------|
|------------------------------|--5-5--5-5-5--5--------------------|
|---3--3-3-3--3-3-3-3-3-3--3-3-|--3-3--3-3-3--3-5-5-5-5--5---5-----|
|---1--1-1-1--1-1-1-1-1-1--1-1-|----------------3-3-3-3--3---3-----|



  |--------6--------| |------6-------|  |-------6--------|

  S  S   S +S  S    S S  S   S S S   S  S S    S S  S    S
|-8-------------------8-10p==7------------7h==10-----------|
|---10-------------10----------8-------10--------8------13-|
|--------9-(9)-9-----------------7---7-------------12------|
|----------------------------------------------------------|
|----------------------------------------------------------|
|----------------------------------------------------------|

|

| S    S    S    S    S    S   S   S    S   S    S    S
|----------------------------------------------------------|
|----------------------------------------------------------|
|----------------------------------------------------------|
|----------------------------------------------------------|
|-7----7----7----7----7----7---7---7----7---7----7----7----|
|-5----5----5----5----5----5---5---5----5---5----5----5----|




   S  S  S  S  S  S  S     S  Q.
|-12-15-12----------12-------15b17----||
|----------13----13-------13----------||
|-------------12----------------------||
|-------------------------------------||
|-------------------------------------||
|-------------------------------------||

|

|  S  S  S  S  S  S  Q.
|-------------------10b12-------------||
|-------------------------------------||
|-------------------------------------||
|-------------------------------------||
|--7--7--7--7--7--7-------------------||
|--5--5--5--5--5--5-------------------||



 Outro
  PM------------------------

  S  S S S S S S S S S S S
|--------------------------|
|--------------------------|
|--------------------------|
|--------------------------|
|--------5---5-------7---7-|
|-0--1-0---0---0-1-0---0---|

|

| H.
|--------------------------|
|--------------------------|
|--------------------------|
|--------------------------|
|--------------------------|
|--------------------------|



 --------------------------------------------------|

  S  S S S S S S S S S S S   S S S S S S S S S S S S
|--------------------------|--------------------------|
|--------------------------|--------------------------|
|--------------------------|--------------------------|
|--------------------------|--------------------------|
|--------8---8---5---7---8-|-------5---5-------7---7--|
|-0--1-0---0---0---0---0---|-0-1-0---0---0-1-0---0----|


|
|                            PM--------------------|


| H.                         S S S S S S S S S S S S
|--------------------------|--------------------------|
|--------------------------|--------------------------|
|--------------------------|--------------------------|
|--------------------------|--------------------------|
|--------------------------|-------5---5-------7---7--|
|--------------------------|-0-3-0---0---0-3-0---0----|



  PM----------|   PM

  S S S S S S S S S S S S   S H    E.
|-------------------------|-----------*|-|
|-------------------------|-----------*|-|
|-------------------------|-----------*|-|
|-------------------------|-----------*|-|
|-------8---8---5---8-7-5-|-----------*|-|
|-0-1-0---0---0---0-------|-0---------*|-|


|
| PM--------------------|


| S S S S S S S S S S S S   S H    E.
|-------------------------|-----------*|-|
|-------------------------|-----------*|-|
|-------------------------|-----------*|-|
|-------------------------|-----------*|-|
|-------8---8---5---7---8-|-----------*|-|
|-0-3-0---0---0---0---0---|-0---------*|-| 
		  

See also:

tabs Simon & Garfunkel - Sounds of silence tabs The Strokes - Juicebox tabs John Mayer - Belief tabs Guns N' Roses - Sweet Child o' mine tabs Guns N' Roses - November Rain tabs Foo Fighters - Everlong (acústico)
e-chords

Other versions:

tabs Alter Bridge - Ties That Blind
auto scroll beats size up size down change color hide chords drawings
tab show chords e-chords YouTube Clip e-chords hide all tabs e-chords go to top tab

share