Albert King

home > Albert King

Personal Manager Tab

Albert King

Difficulty: ExpertExpert

by Nick+D

tuner correct add songbook print version text version save to e-mail
chordsukulelecavacokeyboardtabbassdrumsharmonicsflute Guitar Pro
chords

Personal Manager

Year: 1967 - Album: The Very Best of Albert King

  		      ^b      Vibrato  \sl                V      V      ^b     ^b   ^r 
----6-8-(10)-6----------6---8-(10)-6-(7)-6------6----6--8-(10)-8-(10)-8-----| 
--8------------8--------5------------------8--8---8-------------------------| 
------------------------5---------------------------------------------------| 
----------------------------------------------------------------------------| 
----------------------------------------------------------------------------| 
----------------------------------------------------------------------------| 


   ^b    ^b    ^b                    ^b             ^b  ^r&s ^b    ^b 
--6-(8)-6-(8)-6-(8)-6---------------------3--------8-(10)-6-6-(7)-6-(8)-----| 
----------------------8-6------------------------8--------------------------| 
--------------------------7-5-3---3-5-(7)------7----------------------------| 
--------------------------------5-----------5-------------------------------| 
----------------------------------------------------------------------------| 
----------------------------------------------------------------------------| 


   ^b       v    p               ^b            ^            v 
--6-(8)-6-----6---------3-3---------------------------3-6-3-3---------------| 
----------8-8---8-6---3-----6-3---------------------3-----------------------| 
--------------------5-----------5-(7)---------5-(7)-------------------------| 
--------------------------------------5-3-----------------------------------| 
------------------------------------------5-5-------------------------------| 
----------------------------------------------------------------------------| 

                  :    7x    : 
         ^b   ^r  :   ^b     :        ^b      ^b    v                  ^b 
------------------:----------:------------------------6---------------------| 
--8-11-11-(13)-11-:-11-(13)--:-11-8-11-(12)-11-(12)-8---8-6-3---------------| 
------------------:----------:--------------------------------5-3-0-3-5-(7)-| 
------------------:----------:----------------------------------------------| 
------------------:----------:----------------------------------------------| 
------------------:----------:----------------------------------------------| 


                             ^b                        ^b         ^b 
----3-----------15-15-15------------15-----------------------17--------------| 
--3---6-3---3-3-------------18-(20)---15------------------------18-(20)-(20--| 
----------5--------------15--------------17-15----15-17-(19)-----------------| 
-----------------------------------------------17----------------------------| 
-----------------------------------------------------------------------------| 
-----------------------------------------------------------------------------| 


            ^b            ^b                ^b                  ^b 
--------------------------------------------------15-15---------------------| 
--(20)-15-18-(20)-15-15-18-(20)-(20)-(20)-18-(20)-------18-15---------------| 
--------------------------------------------------------------17-(19)-15----| 
----------------------------------------------------------------------------| 
-------------------------------------------------------------------------17-| 
----------------------------------------------------------------------------| 

       ^b      ^b       ^b          ^b            ^b 
--------------------------------------------------------15------------------| 
-----------------------------------------------------------15---------------| 
--15-17-(19)-17-(19)--17--(19)-17-15-(17)-------15-(17)-------17-15---------| 
------------------------------------------17-17---------------------17------| 
----------------------------------------------------------------------------| 
----------------------------------------------------------------------------| 


                    \sl   ^b      ^b      ^b      ^b      ^b 
------------------------20-(22)-20-(22)-20-(22)-20-(22)-20-(22)-18----------| 
-------------------------------------------------------------------20-18----| 
--15-17-(19)-17-15-12----------------------------------------------------19-| 
-------------------12-------------------------------------------------------| 
----------------------------------------------------------------------------| 
----------------------------------------------------------------------------| 


                ^b        \sl  ^b           ^h ^p      ^b    ^b     ^b 
--------------------------------------3---6-3-5-3---3-6-(7)-8-(10)-6-(7)-6--| 
-------------------------15---------3---3---------6-------------------------| 
--17-15----15-17-(19)-20-15---5-(7)-----------------------------------------| 
--------17------------------------------------------------------------------| 
----------------------------------------------------------------------------| 
----------------------------------------------------------------------------| 

                          :   5x    : 
     ^b          ^b   ^r  :   ^b    :   ^b                 \sl 
----6-(7)-----------------:---------:---------------------------------------| 
--8-------8-11-11-(13)-11-:-11-(13)-:-11-(13)-11-8-11-11-8-11---------------| 
--------------------------:---------:----------------------10---------------| 
--------------------------:---------:-----------------------9---------------| 
--------------------------:---------:---------------------------------------| 
--------------------------:---------:---------------------------------------| 

 /sl                        /sl 
----3-----3-----------------------------------------------------------------| 
--3---3-6---3-----------8-6-------------------------------------------------| 
--------------5-3-0-3-7-----7-7-7-------------------------------------------| 
----------------------------------------------------------------------------| 
----------------------------------------------------------------------------| 
----------------------------------------------------------------------------| 


	  

Search Paypal
auto scroll beats size up size down change color hide chords drawings
tab show chords e-chords YouTube Clip e-chords hide all tabs e-chords go to top tab