Albert King

Stormy Monday Bass Tab

Albert King

Difficulty: nolevelnolevel

by robepoiel

tuner correct add songbook print version text version save to e-mail
chordsukulelecavacokeyboardtabbassdrumsharmonicsflute Guitar Pro
close

there isn't a video lesson for this song

chords

Stormy Monday

Year: 2003 - Album: Blues from the Road

  		Version: Stevie Ray Vaughan & Albert King - Call It Stormy Monday (1983) 

Intro 
G|-------------------------|-------6---6-4---4-------|-------------------------|-------------------------| 
D|-------6---6-4---4-------|-------------------------|-------6---6-4---4-------|-------------8-7-6-------| 
A|-------------------4-5-6-|-4---4-------------4-5-6-|-------------------4-5-6-|-----4-8-7-6--------6-5--| 
E|-4---4-------------------|-------------------------|-4---4-------------------|-4-4---------------------| 

G|-------6---6-4---4-------|-------6---6-4---4-------|-------------------------|-------------------------| 
D|-------------------4-5-6-|-------------------------|-------6---6-4---4-------|-------6---6-4---4-6-7-8-| 
A|-4---4-------------------|-4---4-------------4-5-6-|-------------------4-5-6-|-------------------------| 
E|-------------------------|-------------------------|-4---4-------------------|-4---4-------------------| 

G|-------8---8-6---6-------|-------6---6-4---4-------|-------------------------|-------------------------| 
D|-------------------4-5-6-|-------------------------|---6----6----6----6------|-------4-----------4-----| 
A|-6---6-------------------|-4---4-------------4-5-6-|------3----4----5----6---|-4-5-6-----6-4-6---------| 
E|-------------------------|-------------------------|-4-----------------------|---------------------6-5-| 


Verse x3 
G|-------------------------|---------6---4~----------|-------------------------|-------------------------| 
D|---------6---4~----------|------/6---6-------------|---------6---4~----------|---------6---4~----4-5-6-| 
A|------/6---6-------4-5-6-|-4-----------------------|------/6---6-------4-5-6-|------/6---6-------------| 
E|-4-----------------------|-------------------------|-4-----------------------|-4-----------------------| 

G|---------6---4~----------|---------6---4~----------|-------------------------|-------------------------| 
D|------/6---6-------4-5-6-|------/6---6-------------|---------6---4~----------|---------6---4~----6-7-8-| 
A|-4-----------------------|-4-----------------4-5-6-|------/6---6-------4-5-6-|------/6---6-------------| 
E|-------------------------|-------------------------|-4-----------------------|-4-----------------------| 

G|---------8---6-----------|---------6---4~----------|-------------------------|-------------------------| 
D|------/8---8-------4-5-6-|------/6---6-------------|---6----6----6-----6-----|---4---------------------| 
A|-6-----------------------|-4-----------------4-5-6-|------3----4----5-----6--|-6----6-4-6------6-9-8-7-| 
E|-------------------------|-------------------------|-4-----------------------|-------------------------| 


Solo x2 
G|-------------------------|---------6---4~----------|-------------------------|-------------------------| 
D|---------6---4~----------|------/6---6-------------|---------6---4~----------|---------6---4~----4-5-6-| 
A|------/6---6-------4-5-6-|-4-----------------4-5-6-|------/6---6-------4-5-6-|------/6---6-------------| 
E|-4-----------------------|-------------------------|-4-----------------------|-4-----------------------| 

G|---------6---4~----------|---------6---4~-6-7-8----|-------------------------|-------------------------| 
D|------/6---6-------4-5-6-|------/6---6---------4-6-|---------6---4~----------|---------6---4~----6-7-8-| 
A|-4-----------------------|-4-----------------------|------/6---6-------4-5-6-|------/6---6-------------| 
E|-------------------------|-------------------------|-4-----------------------|-4-----------------------| 

G|---------8---6-----------|---------6---4~----------|-------------------------|-------------------------| 
D|------/8---8-------4-5-6-|------/6---6-------------|---6----6----6-----6-----|---4---------------------| 
A|-6-----------------------|-4-----------------4-5-6-|------3----4----5-----6--|-6----6-4-6------6-9-8-7-| 
E|-------------------------|-------------------------|-4-----------------------|-------------------------| 


Verse 
G|-------------------------|---------6---4~----------|-------------------------|-------------------------| 
D|---------6---4~----------|------/6---6-------------|---------6---4~----------|---------6---4~----4-5-6-| 
A|------/6---6-------4-5-6-|-4-----------------4-5-6-|------/6---6-------4-5-6-|------/6---6-------------| 
E|-4-----------------------|-------------------------|-4-----------------------|-4-----------------------| 

G|---------6---4~----------|---------6---4~----------|-------------------------|-------------------------| 
D|------/6---6-------4-5-6-|------/6---6-------------|---------6---4~----------|---------6---4~----6-7-8-| 
A|-4-----------------------|-4-----------------4-5-6-|------/6---6-------4-5-6-|------/6---6-------------| 
E|-------------------------|-------------------------|-4-----------------------|-4-----------------------| 

G|---------8---6-----------|---------6---4~----------|-------------------------|-------------------------| 
D|------/8---8-------4-5-6-|------/6---6-------------|---6----6----6-----6-----|---4---------------------| 
A|-6-----------------------|-4-----------------4-5-6-|------3----4----5-----6--|-6----6-4-6------6-9-8-7-| 
E|-------------------------|-------------------------|-4-----------------------|-------------------------| 


Solo SRV 
G|-------------------------|---------6---4~----------|-------------------------|-------------------------| 
D|---------6---4~----------|------/6---6-------------|---------6---4~----------|-------------6-8-6-------| 
A|------/6---6-------4-5-6-|-4-----------------4-5-6-|------/6---6-------4-5-6-|-------4-5-6-------9-8-7-| 
E|-4-----------------------|-------------------------|-4-----------------------|-4-4-4-------------------| 

G|---------6---4~----------|---------6---4~----------|-------------------------|-------------------------| 
D|------/6---6-------4-5-6-|------/6---6-------------|---------6---4~----------|---------6---4~----6-7-8-| 
A|-4-----------------------|-4-----------------4-5-6-|------/6---6-------4-5-6-|------/6---6-------------| 
E|-------------------------|-------------------------|-4-----------------------|-4-----------------------| 

G|---------8---6-----------|---------6---4~----------|-------------------------|-------------------------| 
D|------/8---8-------4-5-6-|------/6---6-------------|---6----6----6-----6-----|---4---------------------| 
A|-6-----------------------|-4-----------------4-5-6-|------3----4----5-----6--|-6----6-4-6------6-9-8-7-| 
E|-------------------------|-------------------------|-4-----------------------|-------------------------| 


Solo Albert King 
G|-------------------------|---------6---4~----------|-------------------------|-------------------------| 
D|-------------------------|------/6---6-------------|---------6---4~----------|-----------8-7-6---------| 
A|-------------------4-5-6-|-4-----------------4-5-6-|------/6---6-------4-5-6-|----6-5-4---------6-5-4--| 
E|-------------------------|-------------------------|-4-----------------------|-4-----------------------| 

G|---------6---4~----------|---------6---4~----------|-------------------------|-------------------------| 
D|------/6---6-------4-5-6-|------/6---6-------------|---------6---4~----------|---------6---4~----6-7-8-| 
A|-4-----------------------|-4-----------------4-5-6-|------/6---6-------4-5-6-|------/6---6-------------| 
E|-------------------------|-------------------------|-4-----------------------|-4-----------------------| 

G|---------8---6-----------|---------6---4~----------|-------------------------|-------------------------| 
D|------/8---8-------4-5-6-|------/6---6-------------|---6----6----6-----6-----|---4---------------------| 
A|-6-----------------------|-4-----------------4-5-6-|------3----4----5-----6--|-6----6-4-6--------------| 
E|-------------------------|-------------------------|-4-----------------------|-------------------------| 


Solo SRV II 
G|-------------------------|---------6---4~----------|-------------------------|-------------------------| 
D|---------6---4~----------|------/6---6-------------|---------6---4~----------|---------6---4~----4-5-6-| 
A|------/6---6-------4-5-6-|-4-----------------4-5-6-|------/6---6-------4-5-6-|------/6---6-------------| 
E|-4-----------------------|-------------------------|-4-----------------------|-4-----------------------| 

G|---------6---4~----------|---------6---4~----------|-------------------------|-------------------------| 
D|------/6---6-------4-5-6-|------/6---6-------------|---------6---4~----------|---------6---4~----6-7-8-| 
A|-4-----------------------|-4-----------------4-5-6-|------/6---6-------4-5-6-|------/6---6-------------| 
E|-------------------------|-------------------------|-4-----------------------|-4-----------------------| 

G|---------8---6-----------|---------6---4~----------|-------------------------|-------------------------| 
D|------/8---8-------4-5-6-|------/6---6-------------|---6----6----6-----6-----|---4---------------------| 
A|-6-----------------------|-4-----------------4-5-6-|------3----4----5-----6--|-6----6-4-6--------------| 
E|-------------------------|-------------------------|-4-----------------------|-------------------------| 


Solo Albert King II 
G|-------------------------|---------6---4~----------|-------------------------|-------------------------| 
D|---------6---4~----------|------/6---6-------------|---------6---4~----------|---------6---4~----4-5-6-| 
A|------/6---6-------4-5-6-|-4-----------------4-5-6-|------/6---6-------4-5-6-|------/6---6-------------| 
E|-4-----------------------|-------------------------|-4-----------------------|-4-----------------------| 

G|---------6---4~----------|---------6---4~----------|-------------------------|-------------------------| 
D|------/6---6-------4-5-6-|------/6---6-------------|---------6---4~----------|---------6---4~----6-7-8-| 
A|-4-----------------------|-4-----------------4-5-6-|------/6---6-------4-5-6-|------/6---6-------------| 
E|-------------------------|-------------------------|-4-----------------------|-4-----------------------| 

G|---------8---6-----------|---------6---4~----------|-------------------------|-------------------------| 
D|------/8---8-------4-5-6-|------/6---6-------------|-------------------------|-------------------------| 
A|-6-----------------------|-4-----------------4-5-6-|-------------------------|-------------------------| 
E|-------------------------|-------------------------|-4-----------------------|-6-----5------4----------| 



************************************ 


| /   Slide up 
| ~   Vibrato 


************************************ 
	  

auto scroll beats size up size down change color hide chords drawings
tab show chords e-chords YouTube Clip e-chords hide all tabs e-chords go to top tab

share with facebook

Search Paypal