Alan Jackson

Chattahoochie

Alan Jackson

tabs

by  ANDY

save to print version add songbook text version e-mail correct tuner
chordsukulelecavacokeyboardtabbassdrumsharmonicaflute Guitar Pro
close

there isn't a video lesson for this song

chords

Chattahoochie

	  		Intro: 
 
E------------------------------------------------------------------ 
B------------------------------------------------------------------ 
G------------------------------------------------------------------ 
D------------------------------------------------------------------ 
A--2h3-3-2h3-3-2h3-----2h3-3-2h3-3-2h3------2h3-3-2h3-3-2h3-3-2h3-- 
E------------------------------------------------------------------ 
 
E------------------------------------------------------------------ 
B------------------------------------------------------------------ 
G------------------------------------------------------------------ 
D------------------------------------------5-7-5------------------- 
A--3-----------2h3-3-2h3-3-2h3-3-2h3-3-5/7-------2h3-3-2h3-3-3-3--- 
E----6-5/3-5-3----------------------------------------------------- 
 
E------------------------------------------------------------------ 
B------------------------------------------------------------------ 
G---------------------------------------------5-------------------- 
D----------------------------------------5-7----7---5-7-----5-7---- 
A------5b-3--2h3-3-2h3-3-2h3-3-2h3-3-5/7----7-----7-----6h7-----5b- 
E--5-3------------------------------------------------------------- 
 
E------------------------------------------------------------------ 
B------------------5----------------------------------------------- 
G------------------5----------------------------------------------- 
D------------5-7--------------------------------------------------- 
A--3---3-5/7-----7------------------------------------------------- 
E------------------------------------------------------------------ 
 
During the verses, 		This lick comes at the 
youll hear this lick 		end of the Choruses 
quite a bit 
E---------------------         ------------------------------------ 
B---------------------         ------------------------------------ 
G--0------------------         ------------------------------------ 
D---------------------         ---------3-5------------------------ 
A---5b-3--------------         -------------5b-3------------------- 
E---------------------         ------------------------------------ 
 
Solo: 
	     *  Hold your bend through the stars 
E------------------------------------------------------------------ 
B------------------------------------5----8---8--8--8--8----------- 
G-----------0---0--0--0---0----------5----7b**7**7*7b-7-3~~~------ 
D-------3--------------------------5------------------------------- 
A-----3---3-5b**5**5**5b--5--3-5/7-----7--------------------------- 
E--3/5------------------------------------------------------------- 
 
E------------------------------------------------------------------ 
B----------4-----4-----4--3-----6-----------7----5---3---3--------- 
G--4h5---4-5---4-5---4h5--4-----5-----------7----5---4---3p2p0----- 
D------3-----3-----3--------6h7-----------7----7---7---5--------2-- 
A---------------------------------5-7h8h9-------------------------- 
E------------------------------------------------------------------ 
 
E------------------------------------------------------------------ 
B------------------------------------------------------------------ 
G------------------------------------------------------------------ 
D--0--------------------------------------------------------------- 
A----1-0----------------------------------------------------------- 
E--------3b-------------------------------------------------------- 
 
Outro (the same as the intro, minus the last lick): 
 
E------------------------------------------------------------------ 
B------------------------------------------------------------------ 
G------------------------------------------------------------------ 
D-----------------------------------5-7-5-------------------------- 
A-------2h3-3-2h3-3-2h3-3-2h3-3-5/7-------2h3-3-2h3-3-3-3-----5b-3- 
E--5-3----------------------------------------------------5-3------ 
 
E------------------------------------------------------------------ 
B------------------------------------------------------------------ 
G-----------------------------------5------------------------------ 
D------------------------------5-7----7---5-7-----5-7-------------- 
A--2h3-3-2h3-3-2h3-3-2h3-3-5/7----7-----7-----6h7-----5b-3~~~------ 
E------------------------------------------------------------------ 
 
 

		  

See also:

tabs Simpsons - Theme tabs Hayseed Dixie - Walk This Way tabs Theme Songs - Mario Bros. tabs Big & Rich - Save A Horse Ride A Cowboy-correct tabs Jerry Reed - Eastbound And Down tabs Hank Williams Jr - Family Tradition
e-chords

Other versions:

tabs Alan Jackson - Chattahoochie
auto scroll beats size up size down change color hide chords drawings
tab show chords e-chords YouTube Clip e-chords hide all tabs e-chords go to top tab

share