Airbourne

Overdrive

Airbourne

tabs

by  MATHEUSCARDOZO

save to print version add songbook text version e-mail correct tuner
chordsukulelecavacokeyboardtabbassdrumsharmonicaflute Guitar Pro
close

there isn't a video lesson for this song

chords

Overdrive

	  		-Riff Inicial 

Parte 1 


E|--------------| 
B|--------------| 
G|-2------------| 
D|-2----2--2----| 
A|-0----2--2----| 
E|---3--0--0----| 


Parte 2 e Verso 


E|---------------------| 
B|---------------------| 
G|---------2--2--------| 
D|-2---2---2--2---2-2--| 
A|-2---2---0--0---2-2--| 
E|-0-3-0-3------3-0-0--| 


Ponte para o Refrão = Executar 2 vezes 


E|-------3--------------------------|-3-3-| 
B|-------3-----3------3---3-3-3-3-3-|-3-3-| 
G|-------0---2-2--2-2-2-2-2-2-2-2-3-|-0-0-| 
D|--2-2--0---2-0--2-2-0-2-0-0-0-0-0-|-----| 
A|--2-2--0---0----0-0---0-----------|-----| 
E|--0-0--3--------------------------|-----| 


-Refrão 


E|--------------------|---| 
B|-------------3---3--|---| 
G|-----------2-2-2-2--|-2-| 
D|--2-2--5---2-0-2-0--|-2-| 
A|--2-2--5---0---0----|-0-| 
E|--0-0--3------------|---| 


-Solo - (1:49) 


E|-12--12---12---12----12---12---| 
B|-15b-15br-15b--15br--15b--15br-| 
G|-------------------------------| 
D|-------------------------------| 
A|-------------------------------| 
E|-------------------------------| 



E|-----------------------------------------------------| 
B|-15--15-14-12-14-------------------------13-13b-13b--| 
G|-----------------14-12-14b--14br12--12~~-13-13b-13b--| 
D|----------------------------------14-----------------| 
A|-----------------------------------------------------| 
E|-----------------------------------------------------| 



E|-------------------------------| 
B|-------------------------------| 
G|-14-13-12-14-13-12-------------| 
D|-------------------14b-12-14b--| 
A|-------------------------------| 
E|-------------------------------| 


Várias palhetadas 

E|---------------|---------------------------| 
B|-15-12-12-15---|-15-14-12------------------| 
G|---------------|----------14b-12-----------|  2 
D|---------------|-----------------14~~-14~~-|vezes 
A|---------------|---------------------------| 
E|---------------|---------------------------| 



E|-----------------------------12-15----12-15----12-15---| 
B|----12----------------15--14b------14b------14b--------| 
G|-14b---12b-12b--14-12----------------------------------| 
D|-------------------------------------------------------| 
A|-------------------------------------------------------| 
E|-------------------------------------------------------| 



E|-12--\x-x-x-/-| 
B|-15b-\x-x-x-/-| 
G|-----\x-x-x-/-| 
D|--------------| 
A|--------------| 
E|--------------| 



E|-----------------------------------12------12-----12------| 
B|-----------------------12-15-12-15b----15b----15b---------| 
G|-------------12-14-12-------------------------------------| 
D|-------12-14----------------------------------------------| 
A|-14-14----------------------------------------------------| 
E|----------------------------------------------------------| 



E|-12--12--12---15-15-12--12-15-14---12-15-14-12-15b-------| 
B|-15b-15b-15b--------15b---------15b----------------------| 
G|---------------------------------------------------------| 
D|---------------------------------------------------------| 
A|---------------------------------------------------------| 
E|---------------------------------------------------------| 


-Refrão 

E|--------------------| 
B|-------------3---3--| 
G|-----------2-2-2-2--| 
D|--2-2--5---2-0-2-0--| 
A|--2-2--5---0---0----| 
E|--0-0--3------------| 
		  

See also:

tabs Creed - One Last Breath (ver. 2) tabs John Mayer - Neon tabs The Offspring - Come Out and Play tabs The Doors - Riders On The Storm tabs Guns N' Roses - Knockin' On Heaven's Door tabs Jack Johnson - Breakdown
e-chords

Other versions:

tabs Foo Fighters - Overdrive tabs Airbourne - Overdrive
auto scroll beats size up size down change color hide chords drawings
tab show chords e-chords YouTube Clip e-chords hide all tabs e-chords go to top tab

share