Airbourne

Loaded Gun

Airbourne

tabs

by  MATHEUSCARDOZO

save to print version add songbook text version e-mail correct tuner
chordsukulelecavacokeyboardtabbassdrumsharmonicaflute Guitar Pro
close

there isn't a video lesson for this song

chords

Loaded Gun

	  		Intro:  0:00 - 0:20 

E|---------------------------------------------------------| 
B|---------------------------------------------------------| 
G|--4---2-x------4---2-x------4---2-x------4---2-x----2----| 
D|--4---2-x-2----4---2-x-2----4---2-x-2----4---2-x-2--2----| 
A|--2---0-x-2----2---0-x-2----2---0-x-2----2---0-x-2--0----| 
E|----------0------------0------------0------------0-------|  x2 

E|----------------------------------------------------| 
B|----------------------------------------------------| 
G|--4---2-x------4---2-x------4---2-x------4---2-x----| 
D|--4---2-x-2----4---2-x-2----4---2-x-2----4---2-x-2--| 
A|--2---0-x-2----2---0-x-2----2---0-x-2----2---0-x-2--| 
E|----------0------------0------------0------------0--| 

Verso  0:20 - 0:34 

E|----------------------------------------------------| 
B|----------------------------------------------------| 
G|--4---2-x------4---2-x------4---2-x------4---2-x----| 
D|--4---2-x-2----4---2-x-2----4---2-x-2----4---2-x-2--| 
A|--2---0-x-2----2---0-x-2----2---0-x-2----2---0-x-2--| 
E|----------0------------0------------0------------0--|  x2 

Pré-Refrão  0:34 - 0:40 

E|------3------------3-3------------------------------------| 
B|--3---3-x-3----3---3-0-3----------------------------------| 
G|--2---0-x-2----2---0-0-2--------2-x--------2-2-0-2---2-2--| 
D|--0---0-x-0----0---0-0-0----2---2-x-2----2-2-2-0-2---2-2--| 
A|------x------------x-x------2---0-x-2----2-0-0-0-0---0-0--| 
E|------3------------3-3------0-------0----0----------------| 

Refrão  0:41 - 0:55 

E|-----------------------------| 
B|-----------------------------| 
G|--4--4-2--2------4--4-2--2---| 
D|--4--4-2--2-2----4--4-2--2-2-| 
A|--2--2-0--0-2----2--2-0--0-2-| 
E|------------0--------------0-|  X4 

2º Verso  0:55 - 1:15 

E|--------------------------------------------------------| 
B|--------------------------------------------------------| 
G|--4--4-2-x------4--4-2-x------4--4-2-x------4--4-2-x----| 
D|--4--4-2-x-2----4--4-2-x-2----4--4-2-x-2----4--4-2-x-2--| 
A|--2--2-0-x-2----2--2-0-x-2----2--2-0-x-2----2--2-0-x-2--| 
E|-----------0-------------0-------------0-------------0--|  x2 

E|--------------------------------------------------------| 
B|--------------------------------------------------------| 
G|--4--4-2-x------4--4-2-x------4---2-x------4---2-x------| 
D|--4--4-2-x-2----4--4-2-x-2----4---2-x-2----4---2-x-2----| 
A|--2--2-0-x-2----2--2-0-x-2----2---0-x-2----2---0-x-2----| 
E|-----------0-------------0------------0------------0----| 

PRÉ-REFRÃO  1:15 - 1:21 

E|------3------------3-3------------------------------------| 
B|--3---3-x-3----3---3-0-3----------------------------------| 
G|--2---0-x-2----2---0-0-2--------2-x--------2-2-0-2---2-2--| 
D|--0---0-x-0----0---0-0-0----2---2-x-2----2-2-2-0-2---2-2--| 
A|------x------------x-x------2---0-x-2----2-0-0-0-0---0-0--| 
E|------3------------3-3------0-------0----0----------------| 

REFRÃO 1:21 - 1:36 

E|-----------------------------| 
B|-----------------------------| 
G|--4--4-2--2------4--4-2--2---| 
D|--4--4-2--2-2----4--4-2--2-2-| 
A|--2--2-0--0-2----2--2-0--0-2-| 
E|------------0--------------0-|  X4 

ACORDES PARA SOLO  1:36 - 2:03 

(Estes são os acordes que são tocados sob o solo, se eu conseguir o solo eu vou postar) 

1:36 - 1:49 

E|--------------------------------| 
B|--------------------------------| 
G|----------2------------2--x-----| 
D|--4--4-2--2--4----4--x-2--x--2--| 
A|--4--4-2--0--4----4--x-0--x--2--| 
E|--2--2-0-----2----2--x-------0--|  x3 

E|---------------------------------| 
B|---------------------------------| 
G|----------2---------2-2-0-2---2--| 
D|--4--4-2--2--4----2-2-2-0-2---2--| 
A|--4--4-2--0--4----2-0-0-0-0---0--| 
E|--2--2-0-----2----0--------------| 

1:49 - 2:03 

E|-----------------------------| 
B|-----------------------------| 
G|--4--4-2--2------4--4-2--2---| 
D|--4--4-2--2-2----4--4-2--2-2-| 
A|--2--2-0--0-2----2--2-0--0-2-| 
E|------------0--------------0-| x4 

PRÉ-REFRÃO 

2:03 - 2:10 

E|------3------------3-3------------------------------------| 
B|--3---3-x-3----3---3-0-3----------------------------------| 
G|--2---0-x-2----2---0-0-2--------2-x--------2-2-0-2---2-2--| 
D|--0---0-x-0----0---0-0-0----2---2-x-2----2-2-2-0-2---2-2--| 
A|------x------------x-x------2---0-x-2----2-0-0-0-0---0-0--| 
E|------3------------3-3------0-------0----0----------------| 

REFRÃO 

2:10 - 2:36 

E|-----------------------------| 
B|-----------------------------| 
G|--4--4-2--2------4--4-2--2---| 
D|--4--4-2--2-2----4--4-2--2-2-| 
A|--2--2-0--0-2----2--2-0--0-2-| 
E|------------0--------------0-| x7 

E|----------------| 
B|----------------| 
G|--4--4-2--2-----| 
D|--4--4-2--2-2~--| 
A|--2--2-0--0-2~--| 
E|------------0~--| 


 AND I SHOOT TO KILL 
''E EU DISPARO PARA MATAR'' 

2:39 - 2:47 

FINAL 
E|--------------------------------------------| 
B|--------------------------------------------| 
G|--4444444444444444444444444444444444---4-4--| 
D|--4444444444444444444444444444444444---4-4--| 
A|--2222222222222222222222222222222222---2-2--| 
E|--------------------------------------------| 
		  

See also:

tabs Creed - One Last Breath (ver. 2) tabs John Mayer - Neon tabs The Offspring - Come Out and Play tabs The Doors - Riders On The Storm tabs Guns N' Roses - Knockin' On Heaven's Door tabs Jack Johnson - Breakdown
e-chords

Other versions:

tabs The Living End - Loaded Gun tabs Airbourne - Loaded Gun
auto scroll beats size up size down change color hide chords drawings
tab show chords e-chords YouTube Clip e-chords hide all tabs e-chords go to top tab

share