Afi

home > Afi

So Beneath You Tab

Afi

Difficulty: nolevelnolevel

by ubirbomfim

tuner correct add songbook print version text version save to e-mail
chordsukulelecavacokeyboardtabbassdrumsharmonicsflute Guitar Pro
chords

So Beneath You

	  
INTRO 
E||------------------------------------------------------------- 
B||*------------------------------------------------------------ 
G||----9-9-x-x-x-------------------------------------14--x-14--- 
D||----9-9-x-x-x--12-----12-----10-10--x-x-x--12-----xx--x-xx--- 
A||*---7-7-x-x-x--10-12--10-12--10-10--x-x-x--10-12--12--x-12--- 
E||------------------10-----10---8--8--x-x-x-----10------------- 

e|-----------------------------------------------------------------|| 
b|----------------------------------------------------------------*|| 
G|----9-9-x-x-x-------------------PM-----------------------12-12---|| 
D|----9-9-x-x-x--12-----12-----10-==============-10-10-10--12-12---|| 
A|----7-7-x-x-x--10-12--10-12--10-10-10-10-10-10-10-10-10--10-10--*|| 
E|------------------10-----10---8--8--8--8--8--8--8--8--8----------|| 

VERSE 
e|---------------------------------------------------------------- 
b|---------------------------------------------------------------- 
G|---------------------------------------------------------------- 
D|----9-9-9-9-9--10-10-10-10-10-10-10--7-7-7-7-7-7-6-6-6-6-6-6-6-- 
A|----7-7-7-7-7---7--7--7--7--7--7--7--7-7-7-7-7-7-7-7-7-7-7-7-7-- 
E|----0-0-0-0-0---0--0--0--0--0--0--0--0-0-0-0-0-0-0-0-0-0-0-0-0-- 

e|----------------------------------------------------- 
b|----------------------------------------------------- 
G|--4-4-4-4-4--7-7-7-7-7-7-7------------9-9-9-9-9-9-9-- 
D|--5-5-5-5-5--7-7-7-7-7-7-7--2-2-2-2-2-9-9-9-9-9-9-9-- 
A|--3-3-3-3-3--5-5-5-5-5-5-5--2-2-2-2-2-7-7-7-7-7-7-7-- 
E|-------------5-5-5-5-5-5-5--0-0-0-0-0---------------- 

e|---------------------------------------------------------------- 
b|---------------------------------------------------------------- 
G|---------------------------------------------------------------- 
D|----9-9-9-9-9--10-10-10-10-10-10-10--7-7-7-7-7-7-6-6-6-6-6-6-6-- 
A|----7-7-7-7-7---7--7--7--7--7--7--7--7-7-7-7-7-7-7-7-7-7-7-7-7-- 
E|----0-0-0-0-0---0--0--0--0--0--0--0--0-0-0-0-0-0-0-0-0-0-0-0-0-- 

e|---------------------------------------------------------- 
b|---------------------------------------------------------- 
G|--4-4-4-4-4--7-7-7-7-7-7-7-------------------------------- 
D|--5-5-5-5-5--7-7-7-7-7-7-7-7-7-7-7-PM--------------------- 
A|--3-3-3-3-3--5-5-5-5-5-5-5-7-7-7-7-===================---- 
E|-------------5-5-5-5-5-5-5-5-5-5-5-5-5-5-5-5-5-5-5-5-5---- 

Pre-Chorus 
e|------------------------------------------------ 
b|------------------------------------------------ 
G|---12--11---14--12------------------------------ 
D|---xx---x---xx--xx-12-12-12--9--7--------------- 
A|---10---9---12--10-xx-xx-xx--7--5--7--5--2-2-2-- 
E|-------------------10-10-10--------5--3--0-0-0-- 

e|------------------------------------------------------------------------------- 
b|------------------------------------------------------------------------------- 
G|---12--11---14--12-----------5-5-5-5-5-5-5-5-5-5-5--4-4-4-4-pm----------------- 
D|---xx---x---xx--xx-12-12-12--5-5-5-5-5-5-5-5-5-5-5--4-4-4-4-===============---- 
A|---10---9---12--10-xx-xx-xx--3-3-3-3-3-3-3-3-3-3-3--2-2-2-2-2-2-2-2-2-2-2-2---- 
E|-------------------10-10-10--3-3-3-3-3-3-3-3-3-3-3----------------------------- 

Chorus 
e|------------------------------------------------------- 
b|------------------------------------------------------- 
G|----------------X-5-5-------------------7-7-7-7-7-7---- 
D|----2--2--X-X---X-5-5--X-X--X--5-5-5-5--7-7-7-7-7-7---- 
A|----2--2--X-X---X-3-3--X-X--X--5-5-5-5--5-5-5-5-5-5---- 
E|----0--0--X-X-----3-3--X-X--X--3-3-3-3--5-5-5-5-5-5---- 

e|---------------------------------------------------- 
b|---------------------------------------------------- 
G|------------5-5------------------------------------- 
D|--2-2-X-X-X-5-5-X-X--X-5-5-5-5-5-X------------------ 
A|--2-2-X-X-X-3-3-X-X--X-5-5-5-5-5-X------------------ 
E|--0-0-X-X-X-3-3-X-X--X-3-3-3-3-3-X-3/5-5-5--3--5-5-- 

e|------------------------------------------------------- 
b|------------------------------------------------------- 
G|----------------X-5-5-------------------7-7-7-7-7-7---- 
D|----2--2--X-X---X-5-5--X-X--X--5-5-5-5--7-7-7-7-7-7---- 
A|----2--2--X-X---X-3-3--X-X--X--5-5-5-5--5-5-5-5-5-5---- 
E|----0--0--X-X-----3-3--X-X--X--3-3-3-3--5-5-5-5-5-5---- 

e|--------------------------------------------- 
b|--------------------------------------------- 
G|--PM-------5-5-5-5--------------------------- 
D|--=======--5-5-5-5--5-5-5-5-5-5-------------- 
A|--2-2-2-2--3-3-3-3--5-5-5-5-5-5-5/7-7-7/9-9-- 
E|--0-0-0-0--3-3-3-3--3-3-3-3-3-3-3/5-5-5/7-7-- 

E|------------------------------------------------------------ 
B|------------------------------------------------------------ 
G|---9-9-x-x-x-------------------------------------14--x-14--- 
D|---9-9-x-x-x--12-----12-----10-10--x-x-x--12-----xx--x-xx--- 
A|---7-7-x-x-x--10-12--10-12--10-10--x-x-x--10-12--12--x-12--- 
E|-----------------10-----10---8--8--x-x-x-----10------------- 

e|---------------------------------------------------------------- 
b|---------------------------------------------------------------- 
G|----9-9-x-x-x-------------------PM-----------------------12-12-- 
D|----9-9-x-x-x--12-----12-----10-==============-10-10-10--12-12-- 
A|----7-7-x-x-x--10-12--10-12--10-10-10-10-10-10-10-10-10--10-10-- 
E|------------------10-----10---8--8--8--8--8--8--8--8--8--------- 

VERSE 
e|---------------------------------------------------------------- 
b|---------------------------------------------------------------- 
G|---------------------------------------------------------------- 
D|----9-9-9-9-9--10-10-10-10-10-10-10--7-7-7-7-7-7-6-6-6-6-6-6-6-- 
A|----7-7-7-7-7---7--7--7--7--7--7--7--7-7-7-7-7-7-7-7-7-7-7-7-7-- 
E|----0-0-0-0-0---0--0--0--0--0--0--0--0-0-0-0-0-0-0-0-0-0-0-0-0-- 

e|----------------------------------------------------- 
b|----------------------------------------------------- 
G|--4-4-4-4-4--7-7-7-7-7-7-7------------9-9-9-9-9-9-9-- 
D|--5-5-5-5-5--7-7-7-7-7-7-7--2-2-2-2-2-9-9-9-9-9-9-9-- 
A|--3-3-3-3-3--5-5-5-5-5-5-5--2-2-2-2-2-7-7-7-7-7-7-7-- 
E|-------------5-5-5-5-5-5-5--0-0-0-0-0---------------- 

e|---------------------------------------------------------------- 
b|---------------------------------------------------------------- 
G|---------------------------------------------------------------- 
D|----9-9-9-9-9--10-10-10-10-10-10-10--7-7-7-7-7-7-6-6-6-6-6-6-6-- 
A|----7-7-7-7-7---7--7--7--7--7--7--7--7-7-7-7-7-7-7-7-7-7-7-7-7-- 
E|----0-0-0-0-0---0--0--0--0--0--0--0--0-0-0-0-0-0-0-0-0-0-0-0-0-- 

e|---------------------------------------------------------- 
b|---------------------------------------------------------- 
G|--4-4-4-4-4--7-7-7-7-7-7-7-------------------------------- 
D|--5-5-5-5-5--7-7-7-7-7-7-7-7-7-7-7-PM--------------------- 
A|--3-3-3-3-3--5-5-5-5-5-5-5-7-7-7-7-===================---- 
E|-------------5-5-5-5-5-5-5-5-5-5-5-5-5-5-5-5-5-5-5-5-5---- 

Pre-Chorus 
e|------------------------------------------------ 
b|------------------------------------------------ 
G|---12--11---14--12------------------------------ 
D|---xx---x---xx--xx-12-12-12--9--7--------------- 
A|---10---9---12--10-xx-xx-xx--7--5--7--5--2-2-2-- 
E|-------------------10-10-10--------5--3--0-0-0-- 

e|------------------------------------------------------------------------------- 
b|----------------------------------------------------------------PM------------- 
G|---12--11---14--12-----------5-5-5-5-5-5-5-5-5-5-5--4-4-4-4-PM--===-----4------ 
D|---xx---x---xx--xx-12-12-12--5-5-5-5-5-5-5-5-5-5-5--4-4-4-4-===-0-0-2^4-------- 
A|---10---9---12--10-xx-xx-xx--3-3-3-3-3-3-3-3-3-3-3--2-2-2-2-2-2---------------- 
E|-------------------10-10-10--3-3-3-3-3-3-3-3-3-3-3----------------------------- 

Chorus 
e|------------------------------------------------------- 
b|------------------------------------------------------- 
G|----------------X-5-5-------------------7-7-7-7-7-7---- 
D|----2--2--X-X---X-5-5--X-X--X--5-5-5-5--7-7-7-7-7-7---- 
A|----2--2--X-X---X-3-3--X-X--X--5-5-5-5--5-5-5-5-5-5---- 
E|----0--0--X-X-----3-3--X-X--X--3-3-3-3--5-5-5-5-5-5---- 

e|---------------------------------------------------- 
b|---------------------------------------------------- 
G|------------5-5------------------------------------- 
D|--2-2-X-X-X-5-5-X-X--X-5-5-5-5-5-X------------------ 
A|--2-2-X-X-X-3-3-X-X--X-5-5-5-5-5-X------------------ 
E|--0-0-X-X-X-3-3-X-X--X-3-3-3-3-3-X-3/5-5-5--3--5-5-- 

e|------------------------------------------------------- 
b|------------------------------------------------------- 
G|----------------X-5-5-------------------7-7-7-7-7-7---- 
D|----2--2--X-X---X-5-5--X-X--X--5-5-5-5--7-7-7-7-7-7---- 
A|----2--2--X-X---X-3-3--X-X--X--5-5-5-5--5-5-5-5-5-5---- 
E|----0--0--X-X-----3-3--X-X--X--3-3-3-3--5-5-5-5-5-5---- 

e|--0-0-0-0------------------------------------ 
b|--0-0-0-0------------------------------------ 
G|--0-0-0-0--5-5-5-5--------------------------- 
D|--2-2-2-2--5-5-5-5--5-5-5-5-5-5-------------- 
A|--2-2-2-2--3-3-3-3--5-5-5-5-5-5-5/7-7-7/9-9-- 
E|--0-0-0-0--3-3-3-3--3-3-3-3-3-3-3/5-5-5/7-7-- 

BRIDGE 
e|------------------------------------------------------------------------ 
b|------------------------------------------------------------------------ 
G|--0-2------------------------------------0-2---------------------------- 
D|------0-2------------------------------------0-2------------------------ 
A|-----------------0-2-----------------5--------------0-2---------------5- 
E|-----------0----------3-5-0-0---3----------------0------3-5-0-0---3----- 

e|--------------------------------------------------------------------- 
b|--------------------------------------------------------------------- 
G|---0-2--------------------------------5------------------------------ 
D|-------0-2----------------------------5------------------------------ 
A|----------------0-2-------------------3------------------------------ 
E|-----------0--------3-5-0-0--3---2----3------------------------------ 

e|------------------------------------------------------- 
b|------------------------------------------------------- 
G|----------------X-5-5-------------------7-7-7-7-7-7---- 
D|----2--2--X-X---X-5-5--X-X--X--5-5-5-5--7-7-7-7-7-7---- 
A|----2--2--X-X---X-3-3--X-X--X--5-5-5-5--5-5-5-5-5-5---- 
E|----0--0--X-X-----3-3--X-X--X--3-3-3-3--5-5-5-5-5-5---- 

e|---------------------------------------------------- 
b|---------------------------------------------------- 
G|------------5-5------------------------------------- 
D|--2-2-X-X-X-5-5-X-X--X-5-5-5-5-5-X------------------ 
A|--2-2-X-X-X-3-3-X-X--X-5-5-5-5-5-X------------------ 
E|--0-0-X-X-X-3-3-X-X--X-3-3-3-3-3-X-3/5-5-5--3--5-5-- 

Chorus 
e|------------------------------------------------------- 
b|------------------------------------------------------- 
G|----------------X-5-5-------------------7-7-7-7-7-7---- 
D|----2--2--X-X---X-5-5--X-X--X--5-5-5-5--7-7-7-7-7-7---- 
A|----2--2--X-X---X-3-3--X-X--X--5-5-5-5--5-5-5-5-5-5---- 
E|----0--0--X-X-----3-3--X-X--X--3-3-3-3--5-5-5-5-5-5---- 

e|---------------------------------------------------- 
b|---------------------------------------------------- 
G|------------5-5------------------------------------- 
D|--2-2-X-X-X-5-5-X-X--X-5-5-5-5-5-X------------------ 
A|--2-2-X-X-X-3-3-X-X--X-5-5-5-5-5-X------------------ 
E|--0-0-X-X-X-3-3-X-X--X-3-3-3-3-3-X-3/5-5-5--3--5-5-- 

e|------------------------------------------------------- 
b|------------------------------------------------------- 
G|----------------X-5-5-------------------7-7-7-7-7-7---- 
D|----2--2--X-X---X-5-5--X-X--X--5-5-5-5--7-7-7-7-7-7---- 
A|----2--2--X-X---X-3-3--X-X--X--5-5-5-5--5-5-5-5-5-5---- 
E|----0--0--X-X-----3-3--X-X--X--3-3-3-3--5-5-5-5-5-5---- 

e|--------------------------------------------- 
b|--------------------------------------------- 
G|--PM-------5-5-5-5--------------------------- 
D|--=======--5-5-5-5--5-5-5-5-5-5-------------- 
A|--2-2-2-2--3-3-3-3--5-5-5-5-5-5-5/7-7-7/9-9-- 
E|--0-0-0-0--3-3-3-3--3-3-3-3-3-3-3/5-5-5/7-7-- 

e|------------------------------------------------------- 
b|------------------------------------------------------- 
G|----------------X-5-5-------------------7-7-7-7-7-7---- 
D|----2--2--X-X---X-5-5--X-X--X--5-5-5-5--7-7-7-7-7-7---- 
A|----2--2--X-X---X-3-3--X-X--X--5-5-5-5--5-5-5-5-5-5---- 
E|----0--0--X-X-----3-3--X-X--X--3-3-3-3--5-5-5-5-5-5---- 

e|------------------------------------------------- 
b|------------------------------------------------- 
G|--PM-------5-5-5-5---------------------------5--- 
D|--=======--5-5-5-5--5-5-5-5-5-5--------------5--- 
A|--2-2-2-2--3-3-3-3--5-5-5-5-5-5-5/7-7-7/9-9--3--- 
E|--0-0-0-0--3-3-3-3--3-3-3-3-3-3-3/5-5-5/7-7--3--- 


|* = repeat sign 
*| = repeat sign 
^ = hammer-on/pull-off 
/ = slide up 
\ = slide down 
() = harmonics 
x = string mute 
^b = bend 
qr = Quick Rest 
T = tapping 
~~ = trill 
X\\ = pick slide 

pm 
== = Palm Mute 
	  

there isn't a video lesson for this song

request
Search
auto scroll beats size up size down change color hide chords drawings
tab show chords e-chords YouTube Clip e-chords hide all tabs e-chords go to top tab