Afi

home > Afi

Dark Snow Tab

Afi

Difficulty: nolevelnolevel

by hebealmeida

tuner correct add songbook print version text version save to e-mail
chordsukulelecavacokeyboardtabbassdrumsharmonicsflute Guitar Pro
chords

Dark Snow

	  
INTRO 
e|--12-----8----8-10---12-10-8-10----12-10-8-10----8--- 
b|------10---10-------------------10------------10----- 
G|----------------------------------------------------- 
D|----------------------------------------------------- 
A|----------------------------------------------------- 
E|----------------------------------------------------- 

e|------------------------------------------------- 
b|----------------------------------------------R-- 
G|--------7-9-7---7-9\5----------7-9-7---7-9\5--E-- 
D|---7^10---------X-X\X-----7^10---------x-x\x--S-- 
A|----------------5-7\3------------------5-7\3--T-- 
E|------------------------------------------------- 

e|------------------------------------------------- 
b|------------------------------------------------- 
G|--------7-9-7---7-9\5----------7-9-7---7-9\5----- 
D|---7^10---------X-X\X-----7^10---------x-x\x----- 
A|----------------5-7\3------------------5-7\3----- 
E|------------------------------------------------- 

e|--12-----8----8-10---12-10-8-10----12-10-8-10----8--- 
b|------10---10-------------------10------------10----- 
G|----------------------------------------------------- 
D|----------------------------------------------------- 
A|----------------------------------------------------- 
E|----------------------------------------------------- 

e|------------------------------------------------- 
b|----------------------------------------------R-- 
G|--------7-9-7---7-9\5----------7-9-7---7-9\5--E-- 
D|---7^10---------X-X\X-----7^10---------x-x\x--S-- 
A|----------------5-7\3------------------5-7\3--T-- 
E|------------------------------------------------- 

e|------------------------------------------------- 
b|----------------------------------------------R-- 
G|--------7-9-7---7-9\5----------7-9-7---7-9\5--E-- 
D|---7^10---------X-X\X-----7^10---------x-x\x--S-- 
A|----------------5-7\3------------------5-7\3--T-- 
E|------------------------------------------------- 

e|---------------0-------- 
b|---1-1-1-1-0-3---1------ 
G|---2-2-2-2-2-2---2------ 
D|---2-2-2-2-2-2---2------ 
A|---0-0-0-0-0-----0------ 
E|------------------------ 

e|--12-----8----8-10---12-10-8-10----12-10-8-10----8--- 
b|------10---10-------------------10------------10----- 
G|----------------------------------------------------- 
D|----------------------------------------------------- 
A|----------------------------------------------------- 
E|----------------------------------------------------- 

e|------------------------------------------------- 
b|----------------------------------------------R-- 
G|--------7-9-7---7-9\5----------7-9-7---7-9\5--E-- 
D|---7^10---------X-X\X-----7^10---------x-x\x--S-- 
A|----------------5-7\3------------------5-7\3--T-- 
E|------------------------------------------------- 

E||--------------------------------------------------------------------------------- 
B||*--------------------------------PM-----------------------------12-12-12--------- 
G||--9-9-9-7-7-7--------------------======================-12-12-12---------12------ 
D||--------------9-9-9-10-10-10-7---7-9-10-7-9-10-7-9-10-7---------------------(12)- 
A||*--------------------------------------------------------------------------HARM.- 
E||--------------------------------------------------------------------------------- 

e|--------10-10/12-------|| 
b|--10-----X--X/-X-10---*|| 
G|---------7--7/-9--X----|| 
D|-----7------------7----|| 
A|----------------------*|| 
E|-----------------------|| 

REST FOR PIANO AND VOCALS 

e|--12-----8----8-10---12-10-8-10----12-10-8-10----8--- 
b|------10---10-------------------10------------10----- 
G|----------------------------------------------------- 
D|----------------------------------------------------- 
A|----------------------------------------------------- 
E|----------------------------------------------------- 

e|------------------------------------------------- 
b|------------------------------------------------- 
G|--------7-9-7---7-9\5----------7-9-7---7-9\5----- 
D|---7^10---------X-X\X-----7^10---------x-x\x----- 
A|----------------5-7\3------------------5-7\3----- 
E|------------------------------------------------- 

E||--------------------------------------------------------------------------------- 
B||*--------------------------------PM-----------------------------12-12-12--------- 
G||--9-9-9-7-7-7--------------------======================-12-12-12---------12------ 
D||--------------9-9-9-10-10-10-7---7-9-10-7-9-10-7-9-10-7---------------------(12)- 
A||*--------------------------------------------------------------------------HARM.- 
E||--------------------------------------------------------------------------------- 

e|--------10-10/12-------|| 
b|--10-----X--X/-X-10---*|| 
G|---------7--7/-9--X----|| 
D|-----7------------7----|| 
A|----------------------*|| 
E|-----------------------|| 
 
	  

there isn't a video lesson for this song

request
Search
auto scroll beats size up size down change color hide chords drawings
tab show chords e-chords YouTube Clip e-chords hide all tabs e-chords go to top tab