Afi

home > Afi

Dumb Kids Tab

Afi

Difficulty: nolevelnolevel

by brunblazkowski

tuner correct add songbook print version text version save to e-mail
chordsukulelecavacokeyboardtabbassdrumsharmonicsflute Guitar Pro
chords

Dumb Kids

	  
INTRO/VERSE 
E||----------------------------------------------------------- 
B||*---------------------------------------------------------- 
G||---7-7-7-7-7-7-7-9-9-9-5-5-5---7-7-7-7-7-7-7-9-9-9-5-5-5--- 
D||---X-X-X-X-X-X-X-X-X-X-X-X-X---X-X-X-X-X-X-X-X-X-X-X-X-X--- 
A||*--5-5-5-5-5-5-5-7-7-7-3-3-3---5-5-5-5-5-5-5-7-7-7-3-3-3--- 
E||----------------------------------------------------------- 

e|-----------------------------------------------------------------|| 
b|----------------------------------------------------------------*|| 
G|--7-7-7-7-7-7-7-9/10-10-5-5-X-3-3-3-3-3-3-3-3-3-3-3-3-3-3-3-3----|| 
D|--X-X-X-X-X-X-X-X/-X--X-X-X-X-X-X-X-X-X-X-X-X-X-X-X-X-X-X-X-X----|| 
A|--5-5-5-5-5-5-5-7/-8--8-3-3-X-1-1-1-1-1-1-1-1-1-1-1-1-1-1-1-1---*|| 
E|-----------------------------------------------------------------|| 

Chorus 
e|-----------------------------------------5-5-5-5-5-5--- 
b|---1-1-1-1-1-1--------------5-5-5-5-5-5--6-6-6-6-6-6--- 
G|---2-2-2-2-2-2--------------5-5-5-5-5-5--7-7-7-7-7-7--- 
D|---2-2-2-2-2-2--3-3-3-3-3-3-5-5-5-5-5-5--7-7-7-7-7-7--- 
A|---0-0-0-0-0-0--3-3-3-3-3-3-3-3-3-3-3-3--5-5-5-5-5-5--- 
E|----------------1-1-1-1-1-1-3-3-3-3-3-3--5-5-5-5-5-5--- 

e|-----------------------------------------5-5-5-5-5-5--- 
b|---1-1-1-1-1-1--------------5-5-5-5-5-5--6-6-6-6-6-6--- 
G|---2-2-2-2-2-2--------------5-5-5-5-5-5--7-7-7-7-7-7--- 
D|---2-2-2-2-2-2--3-3-3-3-3-3-5-5-5-5-5-5--7-7-7-7-7-7--- 
A|---0-0-0-0-0-0--3-3-3-3-3-3-3-3-3-3-3-3--5-5-5-5-5-5--- 
E|----------------1-1-1-1-1-1-3-3-3-3-3-3--5-5-5-5-5-5--- 

e|------0--------1----------------------------------------------------------------------- 
b|----1---1----1---1--------------------------------------------1-1-1-1-1-1-1-1-1-1-1-1-- 
G|--2---------------------5--------7----------------------------2-2-2-2-2-2-2-2-2-2-2-2-- 
D|-----------3----------5---5----7---7-3-3-3-3-3-3-5-5-5-5-5-5--2-2-2-2-2-2-2-2-2-2-2-2-- 
A|--------------------3--------5-------3-3-3-3-3-3-5-5-5-5-5-5--0-0-0-0-0-0-0-0-0-0-0-0-- 
E|-------------------------------------1-1-1-1-1-1-3-3-3-3-3-3--------------------------- 

E||--------------------------------||--------------------------------------------------- 
b||*------------------------------*||--------------------------------------------------- 
G||--------------------------------||--------------------------------------------------- 
D||--------------------------------||--------------------------------------------------- 
A||*---5-5-5-5-5-5-5-7-7-7-3-3-3--*||-5-5-5-5-5-5-5-7/8-8--3-3-3-1-1-1-1-1-1-1-1-1-1-1-- 
E||--------------------------------||--------------------------------------------------- 

E|---------------------------------------------------------- 
B|---------------------------------------------------------- 
G|--7-7-7-7-7-7-7-9-9-9-5-5-5---7-7-7-7-7-7-7-9-9-9-5-5-5--- 
D|--X-X-X-X-X-X-X-X-X-X-X-X-X---X-X-X-X-X-X-X-X-X-X-X-X-X--- 
A|--5-5-5-5-5-5-5-7-7-7-3-3-3---5-5-5-5-5-5-5-7-7-7-3-3-3--- 
E|---------------------------------------------------------- 

e|---------------------------------------------------------------- 
b|---------------------------------------------------------------- 
G|--7-7-7-7-7-7-7-9/10-10-5-5-X-3-3-3-3-3-3-3-3-3-3-3-3-3-3-3-3--- 
D|--X-X-X-X-X-X-X-X/-X--X-X-X-X-X-X-X-X-X-X-X-X-X-X-X-X-X-X-X-X--- 
A|--5-5-5-5-5-5-5-7/-8--8-3-3-X-1-1-1-1-1-1-1-1-1-1-1-1-1-1-1-1--- 
E|---------------------------------------------------------------- 

Chorus 
e|-----------------------------------------5-5-5-5-5-5--- 
b|---1-1-1-1-1-1--------------5-5-5-5-5-5--6-6-6-6-6-6--- 
G|---2-2-2-2-2-2--------------5-5-5-5-5-5--7-7-7-7-7-7--- 
D|---2-2-2-2-2-2--3-3-3-3-3-3-5-5-5-5-5-5--7-7-7-7-7-7--- 
A|---0-0-0-0-0-0--3-3-3-3-3-3-3-3-3-3-3-3--5-5-5-5-5-5--- 
E|----------------1-1-1-1-1-1-3-3-3-3-3-3--5-5-5-5-5-5--- 

e|-----------------------------------------10------------ 
b|---1-1-1-1-1-1--------------5-5-5-5-5-5--13^b^b^b^bend- 
G|---2-2-2-2-2-2--------------5-5-5-5-5-5---------------- 
D|---2-2-2-2-2-2--3-3-3-3-3-3-5-5-5-5-5-5---------------- 
A|---0-0-0-0-0-0--3-3-3-3-3-3-3-3-3-3-3-3---------------- 
E|----------------1-1-1-1-1-1-3-3-3-3-3-3---------------- 

e|------0--------1----------------------------------------------------------------------- 
b|----1---1----1---1--------------------------------------------1-1-1-1-1-1-1-1-1-1-1-1-- 
G|--2---------------------5--------7----------------------------2-2-2-2-2-2-2-2-2-2-2-2-- 
D|-----------3----------5---5----7---7-3-3-3-3-3-3-5-5-5-5-5-5--2-2-2-2-2-2-2-2-2-2-2-2-- 
A|--------------------3--------5-------3-3-3-3-3-3-5-5-5-5-5-5--0-0-0-0-0-0-0-0-0-0-0-0-- 
E|-------------------------------------1-1-1-1-1-1-3-3-3-3-3-3--------------------------- 

BRIDGE 
e|-10-10-10-10-10-10-10-10-10-10-10-10-10-10-10-10-10-10-10-10-10-10-10-10-10-10-10-10-10-- 
b|----------------------------------------------------------------11-11-11-11-11-11-11-11-- 
G|----------------------------------------------------------------------------------------- 
D|----------------------------------------------------------------------------------------- 
A|----------------------------------------------------------------------------------------- 
E|----------------------------------------------------------------------------------------- 

e|-10-10-10-10-10-10-10-10-10-10-10-10-10-10-10-10-10-10-10-10-10-10-10-10-10-10-10-10-10-- 
b|----------------------------------------------------------------11-11-11-11-11-11-11-11-- 
G|----------------------------------------------------------------------------------------- 
D|----------------------------------------------------------------------------------------- 
A|----------------------------------------------------------------------------------------- 
E|----------------------------------------------------------------------------------------- 

e|-------------------------------------------------------------------------------------------- 
b|-------------------------------------------------------------------------------------------- 
G|--7-7-7-7-7-7-7-7-7-7-7-7-7-7-7-7-7-7-7-7-7-7-7-7-7-7-7-7-7-7-3-3-3-3-3-3-3-3-3-3-3-7-7-7--- 
D|--x-x-x-x-x-x-x-x-x-x-x-x-x-x-x-x-x-x-x-x-x-x-x-x-x-x-x-x-x-x-x-x-x-x-x-x-x-x-x-x-x-x-x-x--- 
A|--5-5-5-5-5-5-5-5-5-5-5-5-5-5-5-5-5-5-5-5-5-5-5-5-5-5-5-5-5-5-1-1-1-1-1-1-1-1-1-1-1-5-5-5--- 
E|-------------------------------------------------------------------------------------------- 

e|----------- 
b|----------- 
G|----------- 
D|--10------- 
A|---8--10--- 
E|-------8--- 

Chorus 
e|-----------------------------------------5-5-5-5-5-5--- 
b|---1-1-1-1-1-1--------------5-5-5-5-5-5--6-6-6-6-6-6--- 
G|---2-2-2-2-2-2--------------5-5-5-5-5-5--7-7-7-7-7-7--- 
D|---2-2-2-2-2-2--3-3-3-3-3-3-5-5-5-5-5-5--7-7-7-7-7-7--- 
A|---0-0-0-0-0-0--3-3-3-3-3-3-3-3-3-3-3-3--5-5-5-5-5-5--- 
E|----------------1-1-1-1-1-1-3-3-3-3-3-3--5-5-5-5-5-5--- 

e|-----------------------------------------10------------ 
b|---1-1-1-1-1-1--------------5-5-5-5-5-5--13^b^b^b^bend- 
G|---2-2-2-2-2-2--------------5-5-5-5-5-5---------------- 
D|---2-2-2-2-2-2--3-3-3-3-3-3-5-5-5-5-5-5---------------- 
A|---0-0-0-0-0-0--3-3-3-3-3-3-3-3-3-3-3-3---------------- 
E|----------------1-1-1-1-1-1-3-3-3-3-3-3---------------- 

e|---------------------------------------0-0-1-1-3-3------------------- 
b|-------------------------3-3-5-5------------------------------------- 
G|-2-2-2-2-4-4-5-5-----5-5--------------------------------------------- 
D|-----------------3-3------------------------------------------------- 
A|----------------------------------3-3--------------5-5-5-5-5-5-5-5--- 
E|--------------------------------------------------------------------- 

e|-----------------------------------0-0-0-0-0-0-0-0-0-0-0-0-0-0-0-0-- 
b|-----------------------------------1-1-1-1-1-1-1-1-1-1-1-1-1-1-1-1-- 
G|--2-2-2-2-2-2-2-2-4-4-4-4-4-4-4-4--2-2-2-2-2-2-2-2-2-2-2-2-2-2-2-2-- 
D|--3-3-3-3-3-3-3-3-5-5-5-5-5-5-5-5--2-2-2-2-2-2-2-2-2-2-2-2-2-2-2-2-- 
A|--3-3-3-3-3-3-3-3-5-5-5-5-5-5-5-5--0-0-0-0-0-0-0-0-0-0-0-0-0-0-0-0-- 
E|--1-1-1-1-1-1-1-1-3-3-3-3-3-3-3-3----------------------------------- 

e|---5-5-5-5-5-5-5-5-5---------------------------------------------------------------- 
b|---6-6-6-6-6-6-6-6-6---------------------------------------------------------------- 
G|---7-7-7-7-7-7-7-7-7-12--12--12-12--10-10-10-10-10-10-10-10-10-10-10-10-10-10-10-10- 
D|---7-7-7-7-7-7-7-7-7-xx--xx--xx-xx--10-10-10-10-10-10-10-10-10-10-10-10-10-10-10-10- 
A|---5-5-5-5-5-5-5-5-5-10--10--10-10---8--8--8--8--8--8--8--8--8--8--8--8--8--8--8--8- 
E|---5-5-5-5-5-5-5-5-5-----------------8--8--8--8--8--8--8--8--8--8--8--8--8--8--8--8- 

e|--------------------------------------5-5-5-5-5-5-5-5-5-5-5-5-5-5-5-5-- 
b|--------------------------------------6-6-6-6-6-6-6-6-6-6-6-6-6-6-6-6-- 
G|----------------------------12-----12-7-7-7-7-7-7-7-7-7-7-7-7-7-7-7-7-- 
D|-10-10-10-10-10-10-10-10--x-xx--x--xx-7-7-7-7-7-7-7-7-7-7-7-7-7-7-7-7-- 
A|-10-10-10-10-10-10-10-10--x-10--x--10-5-5-5-5-5-5-5-5-5-5-5-5-5-5-5-5-- 
E|--8--8--8--8--8--8--8--8--x-----x-----5-5-5-5-5-5-5-5-5-5-5-5-5-5-5-5-- 

e|---5-5-5-5-5-5-5-5-5---------------------------------------------------------------- 
b|---6-6-6-6-6-6-6-6-6---------------------------------------------------------------- 
G|---7-7-7-7-7-7-7-7-7-12--12--12-12--10-10-10-10-10-10-10-10-10-10-10-10-10-10-10-10- 
D|---7-7-7-7-7-7-7-7-7-xx--xx--xx-xx--10-10-10-10-10-10-10-10-10-10-10-10-10-10-10-10- 
A|---5-5-5-5-5-5-5-5-5-10--10--10-10---8--8--8--8--8--8--8--8--8--8--8--8--8--8--8--8- 
E|---5-5-5-5-5-5-5-5-5-----------------8--8--8--8--8--8--8--8--8--8--8--8--8--8--8--8- 

e|--------------------------------------5-5-5-5-5-5-5-5-5-5-5-5-5-5-5-5-- 
b|--------------------------------------6-6-6-6-6-6-6-6-6-6-6-6-6-6-6-6-- 
G|----------------------------12-----12-7-7-7-7-7-7-7-7-7-7-7-7-7-7-7-7-- 
D|-10-10-10-10-10-10-10-10--x-xx--x--xx-7-7-7-7-7-7-7-7-7-7-7-7-7-7-7-7-- 
A|-10-10-10-10-10-10-10-10--x-10--x--10-5-5-5-5-5-5-5-5-5-5-5-5-5-5-5-5-- 
E|--8--8--8--8--8--8--8--8--x-----x-----5-5-5-5-5-5-5-5-5-5-5-5-5-5-5-5--  
	  

there isn't a video lesson for this song

request
Search Paypal
auto scroll beats size up size down change color hide chords drawings
tab show chords e-chords YouTube Clip e-chords hide all tabs e-chords go to top tab