Affiance

The Hive

Affiance

tabs

by  EDUCASTILHO

save to print version add songbook text version e-mail correct tuner
chordsukulelecavacokeyboardtabbassdrumsharmonicaflute Guitar Pro
close

there isn't a video lesson for this song

chords

The Hive

	  		
GUITAR 1: 
Intro: 
E|-----------------------------------| 
B|-----------------------------------| 
G|-----------------------------------| 
D|-----------------------------------| 
A|-----------------------------------| 
D|-0-7-0-7-0-7-0-7-0-7-0-7-0-7-0-7-0-| 
   .   .   .   .   .   .   .   .   . 
E|-------------------------------------------| 
B|-------------------------------------------| 
G|-------------------------------------------| 
D|-------------------------------------------| 
A|-------------------------------------------| 
D|-0-10-0-10-0-10-0-10-0-10-0-10-0-10-0-10-0-| 
   .    .    .    .    .    .    .    .    . 

E|-----------------------------------| 
B|-----------------------------------| 
G|-----------------------------------| 
D|-----------------------------------| 
A|---7---7---7---7---7---7---7---7---| 
D|-0---0---0---0---0---0---0---0---0-| 
   .   .   .   .   .   .   .   .   . 

E|------------------------------------------| 
B|------------------------------------------| 
G|------------------------------------------| 
D|------------------------------------------| 
A|---10---10---10---10----8----8---8---8----| 
D|-0----0----0----0----0----0----0---0------| 
   .    .    .    .    .    .    .   .    . 

E|---------------------------------------| 
B|-----------------------8h10p8----------| 
G|------10---------10-----------9h10-----| 
D|-0--8----8--0--8----8------------------| 
A|-0----------0--------------------------| 
D|-0----------0--------------------------| 
   .  R R  R  .  R R  R 

E|------------------------------------------| 
B|--------------------------10h11p10--------| 
G|------10------------10-------------10h12--| 
D|-0--8----8--0--0--8----8------------------| 
A|-0----------0--0--------------------------| 
D|-0----------0--0--------------------------| 
   .  R  R R  .  .  R R  R 

E|---------------------------------------| 
B|-----------------------8h10p8----------| 
G|------10---------10-----------9h10-----| 
D|-0--8----8--0--8----8------------------| 
A|-0----------0--------------------------| 
D|-0----------0--------------------------| 
   .  R  R R  .  R  R R 

E|-----------------------------10----13-| 
B|------------------------10------10----| 
G|---------10-----10-7-10---10----------| 
D|-----8------8-------------------------| 
A|-5-8---8------8-----------------------| 
D|--------------------------------------| 
   . .   . R  R .                     ~ 

verse 1: 
E|---------------------------------| 
B|---------------------------------| 
G|---------------------------------| 
D|---------------------------------| 
A|-000--000----000--00-0-000-------| 
D|-000--000----000--00-0-000-------| 
   ...  ...    ...  .. . ... 


E|---------------------------------| 
B|---------------------------------| 
G|---------------------------------| 
D|---------------------------------| 
A|-000--000----000--00-0-000---8\--| 
D|-000--000----000--00-0-000-------| 
   ...  ...    ...  .. . ... 

 Pre-Chorus 1: 
E|------------------------------------| 
B|------------------------------------| 
G|------------------------------------| 
D|-3--------------8-7-5---------------| 
A|---000-00-3h5---------5-000-00------| 
D|---000-00-----0--0-0-0--000-00------| 
     ... .      .  . . .  ... .. 


E|-------------------------------------| 
B|-------------------------------------| 
G|-------------------------------------| 
D|-------------------------------------| 
A|-------------------------------------| 
D|-8h10-0-7-0-8-0-5*-------------------| 
        .   .   . 

E|------------------------------------| 
B|------------------------------------| 
G|------------------------------------| 
D|-3--------------8-7-5---------------| 
A|---000-00-3h5---------5-000-00------| 
D|---000-00-----0--0-0-0--000-00------| 
     ... .      .  . . .  ... .. 


E|-------------------------------------| 
B|-------------------------------------| 
G|-------------------------------------| 
D|-------------------------------------| 
A|-------------------------------------| 
D|-8h10-0-7-0-8-0-5*-------------------| 
        .   .   . 

 Chorus 1: 
E|-------------------------------------| 
B|-------------------------------------| 
G|-------------------------------------| 
D|-------------------------------------| 
A|------7---8--------------------------| 
D|-8-88---8---888888-888-88------------| 
     ..   .   ...... ... .. 



E|--------------------------------------------| 
B|--------------------------------------------| 
G|--------------------------------------------| 
D|--------------------------------------------| 
A|---------8----10----------------------------| 
D|-10-1010---10----101010101010-101010-101010-| 
       . .    .     . . . . . .  . . .  . . . 

E|------------------------------------------| 
B|------------------------------------------| 
G|--10-(X16)---9-(X8)--5 (X8)---------------| 
D|--x--(X16)---x-(X8)--x-(X8)---------------| 
A|--8--(X16)---7-(X8)--3-(X8)---------------| 
D|------------------------------------------| 

E|---------------------------------------| 
B|---------------------------------------| 
G|---------------------------------------| 
D|------5---7----------------------------| 
A|-5-55---5---555555-555-55--------------| 
D|---------------------------------------| 
     ..   .   ...... ... .. 

E|---------------------------------| 
B|---------------------------------| 
G|---------------------------------| 
D|------7---8----------------------| 
A|-7-77---7---777777-777-777-------| 
D|---------------------------------| 
     ..   .   ...... ... ... 


E|-------------------------------------------| 
B|-------------------------------------------| 
G|--14-(X16)---12-(X8)--9-(X8)---------------| 
D|--x--(X16)---x--(X8)--x-(X8)---------------| 
A|--12-(X16)---10-(X8)--7-(X8)---------------| 
D|-------------------------------------------| 

Break: 
E|-------------------------------------------| 
B|-------------------------------------------| 
G|-------------------------------------------| 
D|-------------------------------------------| 
A|-0-000-----00-000--------------------------| 
D|-0-000-7-3-00-000-7-3-0-8-0-2h3------------| 
   . ...     .. ...     .   . 


E|-------------------------------------------| 
B|-------------------------------------------| 
G|-------------------------------------------| 
D|-------------------------------------------| 
A|-0-000-----00-000-----0-00-0000------------| 
D|-0-000-7-3-00-000-7-3-0-00-0000------------| 
   . ..      .. ...     . .. .... 

E|-------------------------------------------| 
B|-------------------------------------------| 
G|-------------------------------------------| 
D|-------------------------------------------| 
A|-0-000-----00-000--------------------------| 
D|-0-000-7-3-00-000-7-3-0-8-0-2h3------------| 
   . ...     .. ...     .   . 


E|--------------------------------------------| 
B|-----------------11h14p11----------11-14/17-| 
G|--------------------------12----12----------| 
D|-----------------------------14-------------| 
A|-0-000-----0-000----------------------------| 
D|-0-000-7-3-0-000----------------------------| 
   . ...     . ... 
verse 2: 

E|-------------------------------------------| 
B|-------------------------------------------| 
G|-10-(X8)-xxx--14-(X4)--12-(X8)-xxx--9-(X4)-| 
D|-x--(X8)-xxx--x--(X4)--x--(X8)-xxx--x-(X4)-| 
A|-8--(X8)-xxx--12-(X4)--10-(X8)-xxx--7-(X4)-| 
D|-------------------------------------------| 

E|-------------------------------------------| 
B|-------------------------------------------| 
G|-77777777-xxx-7777-------------------------| 
D|-xxxxxxxx-xxx-xxxx--77777777-55555555------| 
A|-55555555-xxx-5555--xxxxxxxx-xxxxxxxx------| 
D|--------------------77777777-55555555------| 

E|-------------------------------------------| 
B|-------------------------------------------| 
G|-10-(X8)-xxx--14-(X4)--12-(X8)-xxx--9-(X4)-| 
D|-x--(X8)-xxx--x--(X4)--x--(X8)-xxx--x-(X4)-| 
A|-8--(X8)-xxx--12-(X4)--10-(X8)-xxx--7-(X4)-| 
D|-------------------------------------------| 

E|-------------------------------------------| 
B|-------------------------------------------| 
G|-77777777-xxx-7777-------------------------| 
D|-xxxxxxxx-xxx-xxxx--77777777-55555555------| 
A|-55555555-xxx-5555--xxxxxxxx-xxxxxxxx------| 
D|--------------------77777777-55555555------| 

 Pre-Chorus 2: 
E|-----------------------------------------------| 
B|----------------11---10------------------------| 
G|-10-----------------------12-------------------| 
D|---000-00-10h12----0----0----0--12--000-00-----| 
A|-----------------------------------------------| 
D|-----------------------------------------------| 
     ... .           .    .    .      ... .. 


E|-------------------------------------| 
B|-------------------------------------| 
G|-------------------------------------| 
D|-8h10-0-7-0-8-0-5*-------------------| 
A|-------------------------------------| 
D|-------------------------------------| 
        .   .   . 

E|-----------------------------------------------| 
B|----------------11---10------------------------| 
G|-10-----------------------12-------------------| 
D|---000-00-10h12----0----0----0--12--000-00-----| 
A|-----------------------------------------------| 
D|-----------------------------------------------| 
     ... .           .    .    .      ... .. 


E|-------------------------------------| 
B|-------------------------------------| 
G|-------------------------------------| 
D|-8h10-0-7-0-8-0-5*-------------------| 
A|-------------------------------------| 
D|-------------------------------------| 
        .   .   . 
Chorus 2: 
E|-------------------------------------| 
B|-------------------------------------| 
G|-------------------------------------| 
D|-------------------------------------| 
A|------7---8--------------------------| 
D|-8-88---8---888888-888-88------------| 
     ..   .   ...... ... .. 



E|--------------------------------------------| 
B|--------------------------------------------| 
G|--------------------------------------------| 
D|--------------------------------------------| 
A|---------8----10----------------------------| 
D|-10-1010---10----101010101010-101010-101010-| 
       . .    .     . . . . . .  . . .  . . . 

E|------------------------------------------| 
B|------------------------------------------| 
G|--10-(X16)---9-(X8)--5 (X8)---------------| 
D|--x--(X16)---x-(X8)--x-(X8)---------------| 
A|--8--(X16)---7-(X8)--3-(X8)---------------| 
D|------------------------------------------| 

E|---------------------------------------| 
B|---------------------------------------| 
G|---------------------------------------| 
D|------5---7----------------------------| 
A|-5-55---5---555555-555-55--------------| 
D|---------------------------------------| 
     ..   .   ...... ... .. 

E|---------------------------------| 
B|---------------------------------| 
G|---------------------------------| 
D|------7---8----------------------| 
A|-7-77---7---777777-777-777-------| 
D|---------------------------------| 
     ..   .   ...... ... ... 


E|-------------------------------------------| 
B|-------------------------------------------| 
G|--14-(X16)---12-(X8)--9-(X8)---------------| 
D|--x--(X16)---x--(X8)--x-(X8)---------------| 
A|--12-(X16)---10-(X8)--7-(X8)---------------| 
D|-------------------------------------------| 

Break Down: 
E|-------------------------------------------| 
B|-------------------------------------------| 
G|-------------------------------------------| 
D|-------------------------------------------| 
A|-000000000--7----8-33-33333333-------------| 
D|-000000000----10---33-33333333-------------| 
   .........  R  R R .. ........ 


E|-------------------------------------------------------| 
B|-------------------------------------------------------| 
G|-------------------------------------------------------| 
D|---------------------10-8h10p8h10p8h10p8-7-------------| 
A|-000000000--7----8-------------------------10--7-------| 
D|-000000000----10---------------------------------------| 
   .........  R  R R 

E|-------------------------------------------| 
B|-------------------------------------------| 
G|-------------------------------------------| 
D|-------------------------------------------| 
A|-000000000--7----8-33-33333333-------------| 
D|-000000000----10---33-33333333-------------| 
   .........  R  R R .. ........ 


E|-------------------------------------------------------| 
B|-------------------------------------------------------| 
G|-------------------------------------------------------| 
D|---------------------10-8h10p8h10p8h10p8-7-------------| 
A|-000000000--7----8-------------------------10--7-------| 
D|-000000000----10---------------------------------------| 
   .........  R  R R 

Interlude (play these chordes faster than th pevious you played; listn to song  
you'll see what I mean): 
E|-------------------------------------------| 
B|-------------------------------------------| 
G|-7-(X32)-9-(X32)--10-(X32)-15-(X32)--------| 
D|-x-(X32)-x-(X32)--x--(X32)-x--(X32)--------| 
A|-5-(X32)-7-(X32)--8--(X32)-13-(X32)--------| 
D|-------------------------------------------| 

E|-------------------------------------------| 
B|-------------------------------------------| 
G|-------------------------------------------| 
D|-------------------------------------------| 
A|-12\--0-000--0-000--0--0-000--0-000-000----| 
D|-12\--0-000--0-000--0--0-000--0-000-000----| 
        . ...  . ...  .  . ...  . ... ... 

E|-------------------------------------------| 
B|-------------------------------------------| 
G|-------------------------------------------| 
D|-------------------------------------------| 
A|-0L--0--000---0-000--0L--0-000--0-000------| 
D|-0L--0--000---0-000--0L--0-000--0-000------| 

Pre-Chorus 3 (play these octave chords bac to the same speed you played the during the Chorus): 
E|-------------------------------------------| 
B|-------------------------------------------| 
G|-10-(X12)--7-(X4)--9-(X12)--5-(X4)---------| 
D|-x--(X12)--x-(X4)--x-(X12)--x-(X4)---------| 
A|-8--(X12)--5-(X4)--7-(X12)--3-(X4)---------| 
D|-------------------------------------------| 

E|----------------------------------| 
B|----------------------------------| 
G|-12--(X16)---14-(X8)--9-(X8)------| 
D|-x---(X16)---x--(X8)--x-(X8)------| 
A|-10--(X16)---12-(X8)--7-(X8)------| 
D|----------------------------------| 

E|-----------------------------------------------| 
B|-----------------------------------------------| 
G|-7L--------------------------------------------| 
D|-x---------------------------------------------| 
A|-5L--------------------------------------------| 
D|-0L--------------------------------------------| 

Chorus 3: 
E|-------------------------------------| 
B|-------------------------------------| 
G|-------------------------------------| 
D|-------------------------------------| 
A|------7---8--------------------------| 
D|-8-88---8---888888-888-88------------| 
     ..   .   ...... ... .. 



E|--------------------------------------------| 
B|--------------------------------------------| 
G|--------------------------------------------| 
D|--------------------------------------------| 
A|---------8----10----------------------------| 
D|-10-1010---10----101010101010-101010-101010-| 
       . .    .     . . . . . .  . . .  . . . 

E|------------------------------------------| 
B|------------------------------------------| 
G|--10-(X16)---9-(X8)--5 (X8)---------------| 
D|--x--(X16)---x-(X8)--x-(X8)---------------| 
A|--8--(X16)---7-(X8)--3-(X8)---------------| 
D|------------------------------------------| 

E|---------------------------------------| 
B|---------------------------------------| 
G|---------------------------------------| 
D|------5---7----------------------------| 
A|-5-55---5---555555-555-55--------------| 
D|---------------------------------------| 
     ..   .   ...... ... .. 

E|---------------------------------| 
B|---------------------------------| 
G|---------------------------------| 
D|------7---8----------------------| 
A|-7-77---7---777777-777-777-------| 
D|---------------------------------| 
     ..   .   ...... ... ... 


E|-------------------------------------------| 
B|-------------------------------------------| 
G|--14-(X16)---12-(X8)--9-(X8)---------------| 
D|--x--(X16)---x--(X8)--x-(X8)---------------| 
A|--12-(X16)---10-(X8)--7-(X8)---------------| 
D|-------------------------------------------| 

Outro: 
E|-------------------------------------------| 
B|-------------------------------------------| 
G|-------------------------------------------| 
D|-------------------------------------------| 
A|-0-000-----00-000--------------------------| 
D|-0-000-7-3-00-000-7-3-0-8-0-2h3------------| 
   . ...     .. ...     .   . 


E|-------------------------------------------| 
B|-------------------------------------------| 
G|-------------------------------------------| 
D|-------------------------------------------| 
A|-0-000-----00-000-----0-00-0000------------| 
D|-0-000-7-3-00-000-7-3-0-00-0000------------| 
   . ..      .. ...     . .. .... 

E|-------------------------------------------| 
B|-------------------------------------------| 
G|-------------------------------------------| 
D|-------------------------------------------| 
A|-0-000-----00-000--------------------------| 
D|-0-000-7-3-00-000-7-3-0-8-0-2h3------------| 
   . ...     .. ...     .   . 


E|-----------------------------------------------| 
B|-----------------------------------------------| 
G|-----------------------------------------------| 
D|----------------------------5h8p5--------------| 
A|-0-000-----00-000-----0-4-7--------------------| 
D|-0-000-7-3-00-000-7-3-0------------------------| 
   . ...     . ...      . 


E|-------------------------------------------| 
B|-------------------------------------------| 
G|-------------------------------------------| 
D|-------------------------------------------| 
A|-0-000-----00-000--------------------------| 
D|-0-000-7-3-00-000-7-3-0-8-0-2h3------------| 
   . ...     .. ...     .   . 


E|-------------------------------------------| 
B|-------------------------------------------| 
G|-------------------------------------------| 
D|-------------------------------------------| 
A|-0-000-----00-000-----0-00-0000------------| 
D|-0-000-7-3-00-000-7-3-0-00-0000------------| 
   . ..      .. ...     . .. .... 

E|-------------------------------------------| 
B|-------------------------------------------| 
G|-------------------------------------------| 
D|-------------------------------------------| 
A|-0-000-----00-000--------------------------| 
D|-0-000-7-3-00-000-7-3-0-8-0-2h3------------| 
   . ...     .. ...     .   . 

Not to sure about this part: 
E|-----------------------------------------------------| 
B|------------------------------------------8h11p8h11--| 
G|----------------------------------6h9p6h9------------| 
D|--------------------------5h8p5h8--------------------| 
A|-0-000-----0-000--4h7p4h7----------------------------| 
D|-0-000-7-3-0-000-------------------------------------| 
   . ...     . ... 

Fade out: 
E|-------------------------------------------| 
B|-------------------------------------------| 
G|-------------------------------------------| 
D|-------------------------------------------| 
A|-0-000-----00-000--------------------------| 
D|-0-000-7-3-00-000-7-3-0-8-0-2h3------------| 
   . ...     .. ...     .   . 


E|-------------------------------------------| 
B|-------------------------------------------| 
G|-------------------------------------------| 
D|-------------------------------------------| 
A|-0-000-----00-000-----0-00-0000------------| 
D|-0-000-7-3-00-000-7-3-0-00-0000------------| 
   . ..      .. ...     . .. .... 

E|-------------------------------------------| 
B|-------------------------------------------| 
G|-------------------------------------------| 
D|-------------------------------------------| 
A|-0-000-----00-000--------------------------| 
D|-0-000-7-3-00-000-7-3-0-8-0-2h3------------| 
   . ...     .. ...     .   . 


E|-------------------------------------------| 
B|-------------------------------------------| 
G|-------------------------------------------| 
D|-------------------------------------------| 
A|-0-000-----00-000-----0-00-0000------------| 
D|-0-000-7-3-00-000-7-3-0-00-0000------------| 
   . ..      .. ...     . .. .... 

You may have to listen to the song in oder to get the rythms right. 
		  

auto scroll beats size up size down change color hide chords drawings
tab show chords e-chords YouTube Clip e-chords hide all tabs e-chords go to top tab

share