Affiance

Bohemian

Affiance

tabs

by  HEBEALMEIDA

save to print version add songbook text version e-mail correct tuner
chordsukulelecavacokeyboardtabbassdrumsharmonicaflute Guitar Pro
close

there isn't a video lesson for this song

chords

Bohemian

	  		

Intro: 
|---------------------------------------------------------------------------| 
|---------------------------------------------------------------------------| 
|-7-5-7/14-12-10-9-10-9-10/16-14-13-11--------------------------------------| 
|---------------------------------------------------------------------------| 
|---------------------------------------------------------------------------| 
|---------------------------------------------------------------------------| 

Verse: 
|---------------------------------------------------------------------------| 
|---------------------------------------------------------------------------| 
|---------------------------------------------------------------------------| 
|---------------------------------------------------------------------------| 
|---------------------------------------------------------------------------| 
|-0-0-0-0--0-0-0--0-0-0--0-0-0--8-8-8-8--8-8-8--10-10-10--------------------| x2 
  ****************************************************** 
Pre-Chorus 
|---------------------------------------------------------------------------| 
|---------------------------------------------------------------------------| 
|--------------------------------------------------10h12p10-----------------| 
|-0h10h12-0h10h12-0h10h12-0h10h12-0h10h12--0h10h12----------12p10-----------| 
|---------------------------------------------------------------------------| 
|---------------------------------------------------------------------------| 
  *       *       *       *       *        * 
Pre-Chorus Part 2: 
|---------------------------------------------------------------------------| 
|---------------------------------------------------------------------------| 
|---------------------------------------------------------------------------| 
|---------------------------------------------------------------------------| 
|-0-0-0-0-0--0-------0------------------------------------------------------| 
|-0-0-0-0-0--0-8-7-5-0------------------------------------------------------| 
    * * *      * * * 
Pre-Chorus Part 3: 
|---------------------------------------------------------------------------| 
|---------------------------------------------------------------------------| 
|---------------------------------------------------------------------------| 
|---------------------------------------------------------------------------| 
|---------------------------------------------------------------------------| 
|-8~-5~-0~-10~--------------------------------------------------------------|x2 
  *  *  *  * 
Chorus: 
|---------------------------------------------------------------------------| 
|---------------------------------------------------------------------------| 
|-7-3-10-5-14-7-3-10-/-12-\-10-\-9------------------------------------------| 
|-x-x-x--x-x--x-x-x--/-x--\-x--\-x------------------------------------------| 
|-5-1-8--3-12-5-1-8--/-10-\-8--\-7------------------------------------------| 
|---------------------------------------------------------------------------| 
Repeat: Intro 

Bridge 
|---------------------------------------------------------------------------| 
|---------------------------------------------------------------------------| 
|---------------------------------------------------------------------------| 
|---------------------------------------------------------------------------| 
|--------------------------------------------------------8-3-5--------------| 
|-0-0-0-0--0-0-0--0-0-0--0-0-0--0-0-0-0-0--0-0-0--0-0-0--8-3-5--------------| 
  ***************************************************** 
|---------------------------------------------------------------------------| 
|---------------------------------------------------------------------------| 
|-------------------------------------8h10----------------------------------| 
|-10-10-8-8--7-7-9-9--8-8-10-10--8h10------10p8-----------------------------| 
|---------------------------------------------------------------------------| 
|---------------------------------------------------------------------------| x2 (Repeat  
twice the second time) 
  *  *  * *  * * * *  * * *  * 
Repeat: 
Pre-Chorus 3 
Chorus 

Post-Bridge 
|---------------------------------------------------------------------------| 
|---------------------------------------------------------------------------| 
|-12--10--7--------------10-12-9--------------------------------------------| 
|-x---x---x--------------x--x--x--------------------------------------------| 
|-10--8---5--------------8--10-7--------------------------------------------| 
|--------------0-0-0-0------------------------------------------------------| 
               * * * * 
It is a bit difficult to figure out the strumming pattern for this part. 
Repeat Pre-Chorus 3 
Chorus 

Outro: 
|---------------------------------------------------------------------------| 
|---------------------------------------------------------------------------| 
|--------------------------------------------------10h12p10-----------------| 
|-0h10h12-0h10h12-0h10h12-0h10h12-0h10h12--0h10h12----------12p10-----------| 
|---------------------------------------------------------------------------| 
|---------------------------------------------------------------------------| 
  *       *       *       *       *        * 
|---------------------------------------------------------------------------| 
|---------------------------------------------------------------------------| 
|--------------------------------------------------14h16p14-----------------| 
|-0h14h16-0h14h16-0h14h16-0h14h16-0h14h16--0h14h16----------16p14-----------| 
|---------------------------------------------------------------------------| 
|---------------------------------------------------------------------------| 
  *       *       *       *       *        * 

************************************ 

| /   slide up 
| \   slide down 
| h   hammer-on 
| p   pull-off 
| ~   vibrato 
| +   harmonic 
| x   Mute note 
| b   Bend 
| pb  Pre-bend 
| br  Bend release 
| pbr Pre-bend release 
| brb Bend release bend 

************************************ 
		  

auto scroll beats size up size down change color hide chords drawings
tab show chords e-chords YouTube Clip e-chords hide all tabs e-chords go to top tab

share