Aerosmith

home > Aerosmith

Young lust Tab

Aerosmith

Difficulty: EasyEasy

by Wampira

tuner correct add songbook print version text version save to e-mail
chordsukulelecavacokeyboardtabbassdrummharmonicsflute Guitar Pro
chords

Young lust

  		Aerosmith - Young lust 
 
Intro:  D D G C A A 
 
Guitar 1 Rythm part: 
 
E-------------------------------------------- 
B-------------------------------------------- 
G---------7---------------------------------- 
D---------7---------------------------------- 
A---5bh7--7---5------------7----7----7----7-- 
E-----------------8---5----5----5----5----5-- 
 
Guitar  2 Rythm part: 
 
E----------------------------------------------- 
B----------------------------------------------- 
G---7b---7*---7*-------------------------------- 
D----------------------------------------------- 
A---5b---5*---5*----5-------------7---7---7---7- 
E-----------------------8----5----5---5---5---5- 
 
                                              
                                          D D  G G 
 
Bridge: D sharp, D 
 
        E sharp, E 
 
Solo: 
 
E--5hp8-5hp8-5hp8-5hp8--repeat-many-times----------------------------- 
B---------------------------------------------8----5------------------ 
G----------------------------------------------------7----5-----5----- 
D------------------------------------------------------------7-------- 
A--------------------------------------------------------------------- 
E--------------------------------------------------------------------- 
 
E--------------------------------------------------------------------- 
B----------------------------------------5--------------8b--8bb------- 
G---7---7b---5hp7--------------------5h7-----------5h7---------------- 
D------------------7v---pause----5/7---------5/7---------------------- 
A--------------------------------------------------------------------- 
E--------------------------------------------------------------------- 
 
E-----------------------------------------------------5--7--8-------5- 
B---5hp8------------------------------------------------------5/8----- 
G---------7---5------7b---5------5----7b---5------5------------------- 
D----------------5------------5----------------5---------------------- 
A--------------------------------------------------------------------- 
E--------------------------------------------------------------------- 
	  

Full key step upFull key step up
Half key step upHalf key step up
Half key step downHalf key step down
Full key step downFull key step down
Search Paypal
auto scroll beats size up size down change color hide chords drawings
tab show chords e-chords YouTube Clip e-chords hide all tabs e-chords go to top tab