Aerosmith

home > Aerosmith

Think About It Tab

Aerosmith

Difficulty: nolevelnolevel

by VsWorld

tuner correct add songbook print version text version save to e-mail
chordsukulelecavacokeyboardtabbassdrumsharmonicsflute Guitar Pro
chords

Think About It

Year: 1993 - Album: Night in the Ruts

  		

Tuning: standard 

e|-------------------------------| 
B|--------------14Żbrb12---------| 
G|-/12-12-11-12----------12-11-11| 
D|-------------------------------| 
A|-------------------------------| 
E|-------------------------------| 

Verse: 

e|-------------------------------------------------------------------------------------| 
B|-------------------------------------------------------------------------------------| 
G|-------------------------------------------------------------------------------------| 
D|---------7-----------------7-----------------7-----------------7----------------5----| 
A|-7-10--7---10-7----7-10--7---10-7----7-10--7---10-7----7-10--7---10-7----5-8--5---8-5| 
E|-------------------------------------------------------------------------------------| 


e|------------------------------------------------------------------| 
B|---------10---------------10---------------10---------------8-----| 
G|-9-12--9----12-9--9-12--9----12-9--9-12--9----12-9--7-10--7---10-7| 
D|------------------------------------------------------------------| 
A|------------------------------------------------------------------| 
E|------------------------------------------------------------------| 


Chorus: 

e|--------------------------------------------------| 
B|--------------------------------------------------| 
G|-9-11-12-11--9-11-12-11--9-11-12-11--9-11-12-11--9| 
D|-9-11-12-11--9-11-12-11--9-11-12-11--9-11-12-11--9| 
A|-7-9--10-9---7-9--10-9---7-9--10-9---7-9--10-9---7| 
E|--------------------------------------------------| 

Some of The Solo: 
  1:57 
e|--------------------------------------------12------------------------------| 
B|-----------12-15p12--12--12---------------12--15-12-15p12h15p12h15p12h15p12h| 
G|-14b-14--14--------14--14----12--14p12-14b----------------------------------| 
D|----------------------------------------------------------------------------| 
A|----------------------------------------------------------------------------| 
E|----------------------------------------------------------------------------| 

e|----------------------------------------------------------------13b------------------------------------| 
B|-------------15-14-12-------------------------15-14-12----------------------------15-14-12-------------| 
G|-12-12-11-12----------12-11-11-------12-11-12----------12-11-11-------12-12-11-12----------12-11-11----| 
D|-------------------------------12~------------------------------------------------------------------12~| 
A|-------------------------------------------------------------------------------------------------------| 
E|-------------------------------------------------------------------------------------------------------| 

e|-----------------------------------------------------------------------------| 
B|----------15-14-12----------------------------17-------20-------22-----------| 
G|-12-11-12----------12-11-11-16-------19----------16-16----19-19----21-21-21b~| 
D|-------------------------------14-14----17-17--------------------------------| 
A|-----------------------------------------------------------------------------| 
E|-----------------------------------------------------------------------------| 




************************************ 

| /   slide up 
| \   slide down 
| h   hammer-on 
| p   pull-off 
| ~   vibrato 
| +   harmonic 
| x   Mute note 
| b   Bend 
| pb  Pre-bend 
| br  Bend release 
| pbr Pre-bend release 
| brb Bend release bend 

************************************ 
	  

Search Paypal
auto scroll beats size up size down change color hide chords drawings
tab show chords e-chords YouTube Clip e-chords hide all tabs e-chords go to top tab