Aerosmith

home > Aerosmith

Lover Alot Tab

Aerosmith

Difficulty: ExpertExpert

by ang%2Dletra

tuner correct add songbook print version text version save to e-mail
chordsukulelecavacokeyboardtabbassdrumsharmonicsflute Guitar Pro
chords

Lover Alot

  		 
Part A 
Guitar 1 
e|--------------------------------------------------------------------------------------------| 
B|--------------------------------------------------------------------------------------------| 
G|-5------------------------------------------------------------------------------------------| 
D|-5-----------------8------------------------7----------------------6------------------------| 
A|-3-----------------8------------------------7----------------------6------------------------| 
E|-------------------6------------------------5----------------------4------------------------| 
Guitar 2 
e|---------------------------------------------------------------------------------------------| 
B|---------------------------------------------------------------------------------------------| 
G|-------7^87-5-7^87-5----------7^87-5-7^87-5-----------7^87-5-7^87-5---------7^87-5-7^87-5-5--| 
D|--------------------8-----------------------7----------------------6-------------------------| 
A|---------------------------------------------------------------------------------------------| 
E|---------------------------------------------------------------------------------------------| 


Guitar 1 
e|---------------------------------------------------------------------------------------------| 
B|---------------------------------------------------------------------------------------------| 
G|-5-------------------------------------------------------------------------------------------| 
D|-5-----------------8------------------------7----------------------6-------------5-----------| 
A|-3-----------------8------------------------7----------------------6-------------5-----------| 
E|-------------------6------------------------5----------------------4-------------3-----------| 
Guitar 2 
e|---------------------------------------------------------------------------------------------| 
B|---------------------------------------------------------------------------------------------| 
G|-------7^87-5-7^87-5----------7^87-5-7^87-5-----------7^87-5-7^87-5---------(5)--------------| 
D|--------------------8-----------------------7----------------------6-------------------------| 
A|---------------------------------------------------------------------------------------------| 
E|---------------------------------------------------------------------------------------------| 


Part B 
Guitar 1 x16 
e|--------------------------------------------------------------------------------------------| 
B|--------------------------------------------------------------------------------------------| 
G|--3/5--5-5-5--------------------------------------------------------------------------------| 
D|--3/5--5-5-5--------------------------------------------------------------------------------| 
A|--1/3--3-3-3--------------------------------------------------------------------------------| 
E|--------------------------------------------------------------------------------------------| 
Guitar 2  
e|-------------------------------------------------------------10-----------------------------| 
B|--8-10(8)--10^11--------8-10-8----8\6---------8-10-8----10^11---11--------8-10-8----8\6-----| 
G|--------------------------------------------------------------------------------------------| 
D|--------------------------------------------------------------------------------------------| 
A|--------------------------------------------------------------------------------------------| 
E|--------------------------------------------------------------------------------------------| 

e|--------------------------------------------------------------------------------------------| 
B|-----------8----10^11---8----------8-10-(8)-10^11----------8-10-8-----8\6-------------------| 
G|--------8-----------------------------------------------------------------------------------| 
D|--9^10--------------------------------------------------------------------------------------| 
A|--------------------------------------------------------------------------------------------| 
E|--------------------------------------------------------------------------------------------| 



Part C 
Guitar 1 x64 
e|---------------------------------------------------------------------------| 
B|---------------------------------------------------------------------------| 
G|--7------------------------------------------------------------------------| 
D|--5------------------------------------------------------------------------| 
A|---------------------------------------------------------------------------| 
E|---------------------------------------------------------------------------| 
Guitar 2 
e|--------------------------------------------------------------------------------------------| 
B|--------------------------------------------------------------------------------------------| 
G|--------------------------------------------------------------------------------------------| 
D|---5-5--------8---5-5-----------------------------------------------------------------------| 
A|--------8-(5)-----------8-(5)-8-------------------------------------------------------------| 
E|--------------------------------------------------------------------------------------------| 


Repeat A , B , C , A 


Part D 
Guitar 2 
e|-------------------------------------------------------------------------------| 
B|-------------------------------------------------------------------------------| 
G|-------------------------------------------------------------------------------| 
D|---5-5-----8----5--------------------------------------------------------------| 
A|-------8-5----------8--5-------------------------------------------------------| 
E|--------------------------9-8-6-3----------------------------------------------| 



Part E 

Guitar 1   palm mute 
e|----------------------------------------------------------------------------| 
B|----------------------------------------------------------------------------| 
G|---3------------------------------------------------------------------------| 
D|---3------------------------------------------------------------------------| 
A|---1------------------------------------------------------------------------| 
E|----------------------------------------------------------------------------| 

Guitar 2 
e|-------------------------------------------------------------------------------| 
B|-------------------------------------------------------------------------------| 
G|---10-12-10--12^13------13-12-10-12-10--9r7------------------------------------| 
D|---------------------------------------------------------13\11-----------------| 
A|-----------------------------------------------13\11---------------------------| 
E|-------------------------------------------------------------------------------| 

e|-------------------------------------------------------------------------------| 
B|----------------------------------------------------------16\14----------------| 
G|-------------12^13------13-12-10-12-10--9r7------15\13-------------------------| 
D|-------------------------------------------------------------------------------| 
A|-------------------------------------------------------------------------------| 
E|-------------------------------------------------------------------------------| 

e|-------------------------------------------------------------------------------| 
B|----11----9--------------------------------------------------------------------| 
G|-------10---10----9^10~~10--7--------------------------------------------------| 
D|-------------------------------------------------------------------------------| 
A|-------------------------------------------------------------------------------| 
E|-------------------------------------------------------------------------------| 
 
	  

Search Paypal
auto scroll beats size up size down change color hide chords drawings
tab show chords e-chords YouTube Clip e-chords hide all tabs e-chords go to top tab