Aerosmith

home > Aerosmith

Light Inside Tab

Aerosmith

Difficulty: nolevelnolevel

tuner correct add songbook print version text version save to e-mail
chordsukulelecavacokeyboardtabbassdrumsharmonicsflute Guitar Pro
chords

Light Inside

Year: 2001 - Album: Just Push Play

  		
E----------------------------------------------------
B----------------------------------------------------
G----7-----------------------------------------------
D----7-----------------------------------------------
A----5-----------------------------------------------

Intro/chorus
E ----------------------------------------------------
B ----------------------------------------------------
G -7-9-5--3-4-5-7-9-5-3-4-5......---------------------
D----------------------------------------------------
A----------------------------------------------------
E-----------------------------------------------------
Main riff


E----------------------------------------------------
B----------------------------------------------------
G -12--------------9-10-----------------------------
D -12 12-----------9-10------------------------------ 
A- 10 12-----------7-08------------------------------
E- -- 10---------------------------------------------
	  

Search Paypal
auto scroll beats size up size down change color hide chords drawings
tab show chords e-chords YouTube Clip e-chords hide all tabs e-chords go to top tab