Aerosmith

home > Aerosmith

Last Child Tab

Aerosmith

Difficulty: IntermediateIntermediate

by popoto789

tuner correct add songbook print version text version save to e-mail
chordsukulelecavacokeyboardtabbassdrumsharmonicsflute Guitar Pro
chords

Last Child

Year: 1976 - Album: Rocks

  		Primero solinho 
E-----------0--------------------0--------------------0--------------------0-----------} 
B--------6-----6--------------6-----6--------------8-----8--------------8-----8--------} 
G-----7-----------7--------7-----------7--------7-----------7--------7-----------7-----} 
D--7-----------------7--7-----------------7--5-----------------5--5-----------------5--} 
A--------------------------------------------------------------------------------------} 
E--------------------------------------------------------------------------------------} 


E------------0--------------------0----------------------------------------------------} 
B---------9-----9--------------9-----9---10---11---------------------------------------} 
G------7-----------7--------7--------7----8----9---------------------------------------} 
D--/9-----------------9--9-----------9---10---11---------------------------------------} 
A--------------------------------------------------------------------------------------} 
E--------------------------------------------------------------------------------------} 

(0:21) 
  Depois de 0:21 seg vc faiz o otro solo rapido 4x 


   Right! 
E--7-----------------------7-----------------------------} 
B--7-----------------------7-----------------------------} 
G--------------------------------------------------------} 
D--------------------------------------------------------} 
A----------4---5---4-----------4---5---7^^^^^^^^---------} 
E------0---------------0---------------------------------} 

Gtr. 2 (Brad Whitford x4 E--------------------------------------------------------} 
B--------------------------------------------------------} 
G--------------------------------------------------------} 
D--------------------------------------------------------} 
A------2---4---5---4---2-------4---5---7^^^^^^^^---------} 
E--0-----------------------------------------------------} 


Aii jah tah no Refrão 


   Yes sir no sir don't come close to my home sweet home can't catch no nose of my hot 

E--------------------------------------------------------------------------------------} 
B--------------------------------------------------------------------------------------} 
G--------------------------------------------------------------------------------------} 
D--5---7---4--5---2-----4----0-----2--4--5----7-----4----5-----2-----4--0----2--4--5---}
A--0---0---0--0---0----------0-----0--0--0----0-----0----0-----0-----0--0----0--0--0---} 
E--------------------------------------------------------------------------------------} 


E---------12--15-------------11---------------------12---15-------------11-------------} 
B---------12--15-------------11---------------------12---15-------------11-------------} 
G---------12-----------------11---------------------12------------------11-------------} 
D--------------------------------------------------------------------------------------} 
A--------------------------------------------------------------------------------------} 
E--------------------------------------------------------------------------------------} 



E--------------------------------------------------------------------------------------} 
B--------------------------------------------------------------------------------------} 
G--------------------------------------------------------------------------------------} 
D------------------------------------------5---7--4----5----2------4-------0--2--4---5-} 
A------------------------------------------0---0--0----0----0------0-------0--0--0---0-} 
E--------------------------------------------------------------------------------------} 



    
E----7-----------------------7-----------------------------} 
B----7-----------------------7-----------------------------} 
G----------------------------------------------------------} 
D----------------------------------------------------------} 
A------------4---5---4-----------4---5---7^^^^^^^^---------} 
E--------0---------------0---------------------------------} 


E--------------------------------------------------------} 
B--------------------------------------------------------} 
G--------------------------------------------------------} 
D--------------------------------------------------------} 
A------2---4---5---4---2-------4---5---7^^^^^^^^---------} 
E--0-----------------------------------------------------} 
	  

Search Paypal
auto scroll beats size up size down change color hide chords drawings
tab show chords e-chords YouTube Clip e-chords hide all tabs e-chords go to top tab