Aerosmith

home > Aerosmith

Head First Tab

Aerosmith

Difficulty: nolevelnolevel

by carlluz

tuner correct add songbook print version text version save to e-mail
chordsukulelecavacokeyboardtabbassdrumsharmonicsflute Guitar Pro
chords

Head First

  		

Intro: ooooo - ooo - ooooooohhh 

e|-----1------3--5--| 
B|---1---1----3--5--| 
G|-0--------0-------| 
D|------------------| 
A|------------------| 
E|------------------|x8 

Verse: 

e|-------1-------1------------| 
B|-------1-------1-------2222-| 
G|-----------------------2222-| 
D|-----------------------2222-| 
A|-0x-0x---0x-0x---0x-0x-0000-| play this for three times, then at the fourth time, instead of "A"  
E|----------------------------| play "E" from the 7th fret 
  

Chorus: 

e|-------------------------| 
B|-------------------------| 
G|-2-------6-----2---------| 
D|-2---4---6-----2---4---6-| 
A|-0---4---4-----0---4---6-| 
E|-----2-------------2---4-| 


************************************ 

| /   slide up 
| \   slide down 
| h   hammer-on 
| p   pull-off 
| ~   vibrato 
| +   harmonic 
| x   Mute note 
| b   Bend 
| pb  Pre-bend 
| br  Bend release 
| pbr Pre-bend release 
| brb Bend release bend 

************************************ 
	  

Search Paypal
auto scroll beats size up size down change color hide chords drawings
tab show chords e-chords YouTube Clip e-chords hide all tabs e-chords go to top tab