Aerosmith

home > Aerosmith

Fly Away From Here Tab

Aerosmith

Difficulty: BeginnerBeginner

by 4219

tuner correct add songbook print version text version save to e-mail
chordsukulelecavacokeyboardtabbassdrumsharmonicsflute Guitar Pro
chords

Fly Away From Here

Year: 2001 - Album: Just Push Play

  		 
Intro (x2) 
 
e------------------------------------------ 
b------------------------------------------ 
g------------------------------------------ 
d--4/6--6/7--7/9--9/14/11------------------ 
a------------------------------------------ 
e------------------------------------------ 
 
 
SOLO 
 
e----------------------------------------- 
b----------------------------------------- 
g---11/13-13-11-9-11--9/11/9-------------- 
d----------------------------11-11/14-14/17 
--17/19----------------------------------- 
a----------------------------------------- 
e----------------------------------------- 

	  

Search Paypal
auto scroll beats size up size down change color hide chords drawings
tab show chords e-chords YouTube Clip e-chords hide all tabs e-chords go to top tab