Adema

home > Adema

Promises Tab

Adema

Difficulty: ExpertExpert

tuner correct add songbook print version text version save to e-mail
chordsukulelecavacokeyboardtabbassdrumsharmonicsflute Guitar Pro
chords

Promises

  		Intro 
(Guitar 1 - Acoustic) 4x 
--------------------------------------------------------- 
--------------------------------------------------------- 
--------------------------------------------------------- 
--3--3--3-3-3-3--5--5--5-5-5-5--5--5--5-5-5-5--6--6--6-6- 
--3--3--3-3-3-3--3--3--3-3-3-3--6--6--6-6-6-6--4--4--4-4- 
--1--1--1-1-1-1--4--4--4-4-4-4--4--4--4-4-4-4--4--4--4-4- 
 
(Guitar 2 - Clean electric) 
(Escute para pegar o tempo certo) 
--------------------------------------------------------- 
--------------------------------------------------------- 
--------------------------------------------------------- 
--3-6-6-5--x-x-6-6-6-6-6--------------------------------- 
--------------------------------------------------------- 
--------------------------------------------------------- 
 
(Guitar 2 - Distorted electric) 2x 
--------------------------------------------------------- 
--------------------------------------------------------- 
--------------------------------3--3--3-3-3-3------------ 
--3--3--3-3-3-3--5--5--5-5-5-5--5--5--5-5-5-5--6--6--6-6- 
--3--3--3-3-3-3--3--3--3-3-3-3--6--6--6-6-6-6--4--4--4-4- 
--1--1--1-1-1-1--4--4--4-4-4-4--4--4--4-4-4-4--4--4--4-4- 
 
 
Verses 
(Guitar 1 - Acoustic) 4x 
--------------------------------------------------------- 
--------------------------------------------------------- 
--------------------------------------------------------- 
--3--3--3-3-3-3--5--5--5-5-5-5--5--5--5-5-5-5--6--6--6-6- 
--3--3--3-3-3-3--3--3--3-3-3-3--6--6--6-6-6-6--4--4--4-4- 
--1--1--1-1-1-1--4--4--4-4-4-4--4--4--4-4-4-4--4--4--4-4- 
 
(Guitar 2 - Clean electric) 2x 
(Escute para pegar o tempo certo) 
--------------------------------------------------------- 
--------------------------------------------------------- 
--------------------------------------------------------- 
--3-5h6-5h6-5--3-5h6-5h6-5--x-x-6-6-6-6-6---------------- 
--------------------------------------------------------- 
--------------------------------------------------------- 

	  

Search Paypal
auto scroll beats size up size down change color hide chords drawings
tab show chords e-chords YouTube Clip e-chords hide all tabs e-chords go to top tab