Adema

home > Adema

Promises Bass Tab

Adema

Difficulty: IntermediateIntermediate

tuner correct add songbook print version text version save to e-mail
chordsukulelecavacokeyboardtabbassdrumsharmonicsflute Guitar Pro
chords

Promises

  		ARTIST: ADEMA 
TITLE: PROMISES 
 
tabbed by Simone 
 
 
INTRO/ OUTRO                                    
 
G  -------------------------------------------- 
D  -------------------------------------------- 
A  --------------6-6--4-4------------ 
D  --3-3--5-5-------------------------------------- 
 
VERSE 
 
G  --------------------------------------------- 
D  --------------------------------------------- 
A  --------------------4-4---------------------         X3       
D   -3-3--5-5--1-1--------------------------- 
 
BEFORE CHORUS VERSE  IS 
 
G  --------------------------------------------- 
D  --------------------------------------------- 
A  --------------6-6--4-4--6-4---------------         X1         
D   -3-3--5-5--------------------6-3--------- 
 
CHORUS 
 
G  --------------------------||------------------------------------------- 
D  --------------------------||------------------------------------------- 
A  -------------6-6--4-4---||----------------------4-4--4-2------------ 
D   -3-3--5-5--------------||-----3-3--5-5--1-1--------------5-3----- 
 
STACCO 
 
G  ------------           --------------------------------------- 
D  ------------           --------------------------------------- 
A  -------4>-- X2     ---1>---4>--------------------------- 
D   --3>------           ---------------------------------------- 
 
 
 
 
Myabe it?s not all alright,but it?s sound like this 
 

	  

Search Paypal
auto scroll beats size up size down change color hide chords drawings
tab show chords e-chords YouTube Clip e-chords hide all tabs e-chords go to top tab