Adele

home > Adele

Cold Shoulder Tab

Adele

Difficulty: nolevelnolevel

by gustsilva

tuner correct add songbook print version text version save to e-mail
chordsukulelecavacokeyboardtabbassdrumsharmonicsflute Guitar Pro
chords

Cold Shoulder

  		

|| Chorus || 

e |--------------------------| 
B |---151515-----------------| 
G |---121212-141414-121212---| 
D |----------121212-121212---| x 2 
A |--------------------------| 
E |--------------------------| 

e |-------10------10----------| 
B |---13------13------10-12---| 
G |-----12--12--12--12--------| 
D |---------------------------| 
A |---------------------------| 
E |---------------------------| 

e |-----------191919-------------| 
B |---151515--191919-------------| 
G |---121212---------------------| 
D |------------------------------| 
A |------------------------------| 
E |------------------------------| 

|| POST-Chorus || 

e |---------------------------------------| 
B |---------------------------------------| 
G |---9/10/9--4/5/4----2--9/10/9--4/5/4---| 
D |---9/10/9--4/5/4--5-2--9/10/9--4/5/4---| 
A |---7/8-/7--2/3/2--5-0--7/8-/7--2/3/2---| 
E |------------------3--------------------| 

|| VERSE || 

e |-------------------------------------------------------| 
B |-------------------------------------------------------| 
G |-------------------------------------------------------| 
D |---7h9p7-7h9p7--5h7p5--2h5p2---7h9p7-7h9p7---2-2h5p2---| x 2 
A |-------------------------------------------------------| 
E |-------------------------------------------------------| 

| Chorus | 

| BRIDGE | 

| Chorus | 

|| ENDING || 

e |--------------------------------------| 
B |--------------------------------------| 
G |--------------------------------------| 
D |-------2h3p2------------2h3p2---------| x 2 
A |-------------2h3p2------------2h3p2---| 
E |---0/5--------------0/5---------------| 

************************************ 

| /   slide up 
| \   slide down 
| h   hammer-on 
| p   pull-off 
| ~   vibrato 
| +   harmonic 
| x   Mute note 
| b   Bend 
| pb  Pre-bend 
| br  Bend release 
| pbr Pre-bend release 
| brb Bend release bend 

************************************ 
	  

Search Paypal
auto scroll beats size up size down change color hide chords drawings
tab show chords e-chords YouTube Clip e-chords hide all tabs e-chords go to top tab