Adam Sandler

home > Adam Sandler

Forgetful Lucy Tab

Adam Sandler

Difficulty: BeginnerBeginner

by unfortunateflip

tuner correct add songbook print version text version save to e-mail
chordsukulelecavacokeyboardtabbassdrumsharmonicsflute Guitar Pro
chords

Forgetful Lucy

  		INTRO 
 
|------------------------------------------------| 
|--3--33---2--22---000--2--22--2-----------------| 
|--2--22---2--22---222--2--22--2-----------------| 
|--0--00---0--00---000--0--00--0-----------------| 
|--0--00---0--00---000--0--00--0-----------------| 
|------------------------------------------------| 
 
 
|------------------------------------------------| 
|--3--33---2--22---000--2------------------------| 
|--2--22---2--22---222--2------------------------| 
|--0--00---0--00---000--0------------------------| 
|--x--xx---x--xx---xxx--x------------------------| 
|--3--33---3--33---333--3------------------------| 
 
 
 
VERSE 
 
|------------------------------------------------| 
|--3--33---2--22---000--2--22--2-----------------| 
|--2--22---2--22---222--2--22--2-----------------| 
|--0--00---0--00---000--0--00--0-----------------| 
|--0--00---0--00---000--0--00--0-----------------| 
|------------------------------------------------| 
 
 
|------------------------------------------------| 
|--3--33---2--22---000--2--22--------------------| 
|--2--22---2--22---222--2--22--------------------| 
|--0--00---0--00---000--0--00--------------------| 
|--x--xx---x--xx---xxx--x--xx--------------------| 
|--3--33---3--33---333--3--33--------------------| 
 
 
 
Chorus 
 
|------------------------------------------------| 
|--2---------3-----------------------------------| 
|--2---------2-----------------------------------| 
|--2---------0-----------------------------------| 
|--0---------x-----------------------------------| 
|------------3-----------------------------------| 

	  

Search Paypal
auto scroll beats size up size down change color hide chords drawings
tab show chords e-chords YouTube Clip e-chords hide all tabs e-chords go to top tab