AC/DC

home > AC/DC

Highway To Hell Tab

AC/DC

Difficulty: ExpertExpert

by New%5Fvinny

tuner correct add songbook print version text version save to e-mail
chordsukulelecavacokeyboardtabbassdrummharmonicsflute Guitar Pro
chords

Highway To Hell

Year: 1979 - Album: Highway to Hell

(Bon Scott/ Angus Young/ Malcolm Young)

	  
Intro and Verse: A5 D/F# G 

e|--------------3---------3--------3----------| 
B|--------3--3--3---3--3--3--3--3--3--3-------| 
G|-2-2-2--2--2--0---2--2--0--2--2--0--2--2--2-| 
D|-2-2-2--------0---------0--------0-----2--2-| 
A|-0-0-0---------------------------------0--0-| 
E|--------2--2--3---2--2--3--2--2--3--2-------| (2x) 

e|--------------3---------3--------3----------| 
B|--------3--3--3---3--3--3--3--3--3--3-------| 
G|-2-2-2--2--2--0---2--2--0--2--2--0--2--2--2-| 
D|-2-2-2--------0---------0--------0-----2--2-| 
A|-0-0-0---------------------------------0--0-| 
E|--------2--2--3---2--2--3--2--2--3--2-------| (3x) 

e|--------------3---------3--------3--------------------------------| 
B|--------3--3--3---3--3--3--3--3--3--3-----------------------------| 
G|-2-2-2--2--2--0---2--2--0--2--2--0--2-----------------------------| 
D|-2-2-2--------0---------0--------0--------------------------------| 
A|-0-0-0----------------------------------2-2-2-2-2-2-2-2-2-2-2-2-2-| 
E|--------2--2--3---2--2--3--2--2--3--2-0-0-0-0-0-0-0-0-0-0-0-0-0-0-| 

Chorus: A5 D5 G D/F# 

e|----------3----------|--------------| 
B|------3---3--3-------|-----3--------| 
G|-2----2---0--2--(3x)-|-2---2--2-2-2-| 
D|-2----0---0----------|-2---0--2-2-2-| 
A|-0-------------------|-0------0-0-0-| 
E|----------3----------|--------------| 

Verse: 

e|--------------3---------3--------3----------| 
B|--------3--3--3---3--3--3--3--3--3--3-------| 
G|-2-2-2--2--2--0---2--2--0--2--2--0--2--2--2-| 
D|-2-2-2--------0---------0--------0-----2--2-| 
A|-0-0-0---------------------------------0--0-| 
E|--------2--2--3---2--2--3--2--2--3--2-------| (3x) 

e|--------------3---------3--------3--------------------------------| 
B|--------3--3--3---3--3--3--3--3--3--3-----------------------------| 
G|-2-2-2--2--2--0---2--2--0--2--2--0--2-----------------------------| 
D|-2-2-2--------0---------0--------0--------------------------------| 
A|-0-0-0----------------------------------2-2-2-2-2-2-2-2-2-2-2-2-2-| 
E|--------2--2--3---2--2--3--2--2--3--2-0-0-0-0-0-0-0-0-0-0-0-0-0-0-| 

Chorus: A5 D5 G D/F# 

e|----------3----------|--------------| 
B|------3---3--3-------|-----3--------| 
G|-2----2---0--2--(3x)-|-2---2--2-2-2-| 
D|-2----0---0----------|-2---0--2-2-2-| 
A|-0-------------------|-0------0-0-0-| 
E|----------3----------|--------------| 

Pre-Solo: D Dsus4 

e|-2-2-2--3-3-3--2----2-2-2--3-3-3---2---3-3-3--2-| 
B|-3-3-3--3-3-3--3----3-3-3--3-3-3---3---3-3-3--3-| 
G|-2-2-2--2-2-2--2----2-2-2--2-2-2---2---2-2-2--2-| 
D|-0-0-0--0-0-0--0----0-0-0--0-0-0---0---0-0-0--0-| 
A|------------------------------------------------| 
E|------------------------------------------------| 

Solo: 

e|--------------------------------------------------------------| 
B|-3-----5-5-----5-5-----5-5-----5-5-----5-5--7b8r7b8-----------| 
G|---7b9-----7b9-----7b9-----7b9-----7b9------7b8r7b8--5---7--5-| 
D|-------------------------------------------------------7------| 
A|--------------------------------------------------------------| 
E|--------------------------------------------------------------| 

e|----------------| 
B|----------------| 
G|----------------| 
D|---4b5r4p2-----2| 
A|-0---------3p0--| 
E|----------------| 


e|-------5------------5-------------------------5------------------| 
B|-----5--------------5------5--------------------5----------------| 
G|-4b6---(6)r4--2p0------0---4b5r4b5--2p0----2------4b6r4-2-4/14---| 
D|-----------------0----------------------0------------------------| 
A|-----------------------------------------------------------------| 
E|-----------------------------------------------------------------| 

End Music: 

e|-15b17r15--------------------| 
B|----------15b17p13-----13----| 
G|--------------------14----14-| 
D|-----------------------------| 
A|-----------------------------| 
E|-----------------------------| 

e|--12b-------------| 
B|--13b-------------| 
G|-------14--11--14-| 
D|------------------| 
A|------------------| 
E|------------------| 

e|--------------15-----------| 
B|-15b17r16b17-----17r16b17--| 
G|---------------------------| 
D|---------------------------| 
A|---------------------------| 
E|---------------------------| 

e|-12b-12b------------12b--12b------------------------------------| 
B|-13b-13b----13b-----13b--13b--13b-----17b19-13-------------13b--| 
G|---------------14-----------------14-------------14-123-14------| 
D|----------------------------------------------------------------| 
A|----------------------------------------------------------------| 
E|----------------------------------------------------------------| 

e|--------------------------------15b17-17-17--| 
B|-15b17-(17)-(17)-----------13b---------------| 
G|-------(16)-(16)--14-12-14-------------------| 
D|---------------------------------------------| 
A|---------------------------------------------| 
E|---------------------------------------------| 

	  

there is a video lesson for this song
view full video
Full key step upFull key step up
Half key step upHalf key step up
Half key step downHalf key step down
Full key step downFull key step down
Search
auto scroll beats size up size down change color hide chords drawings
tab show chords e-chords YouTube Clip e-chords hide all tabs e-chords go to top tab