AC/DC

home > AC/DC

Back in Black Tab

AC/DC

Difficulty: ExpertExpert

by bubblesdarling

tuner correct add songbook print version text version save to e-mail
chordsukulelecavacokeyboardtabbassdrumsharmonicsflute Guitar Pro
chords

Back in Black

	  
INTRO  VERSO  

e|---------------------0--x---x---x----------------3p0---------|  
B|--X--X--X--X--X--X---0--3---3---3--------------------3p0-----|  
G|--X--X--X--X--X--X---3--2---2---2-------------------------2~-|  
D|--X--X--X--X--X--X---2--0---0---0---2---2---2----------------|  
A|---------------------2--------------0---0---0----------------|  
E|---------------------0---------------------------------------|  


e|--0--x---x---x---2---2---2---x-----x-----x-----x-------------|  
B|--0--3---3---3---2---2---2---2-----2-----2-----2-------------|  
G|--3--2---2---2---2---2---2---2-----2-----2-----2-------------|  
D|--2--0---0---0---2---2---2---2-----2-----2-----2-------------|  
A|--2--------------0---0---0---2-----2-----2-----2-------------|  
E|--0-----------------------------4-----5-----6------7/--------|  



e|---------------------0--x---x---x---x---x---x--3p0-----------|  
B|--X--X--X--X--X--X---0--3---3---3---2---2---2--------3p0-----|  
G|--X--X--X--X--X--X---1--2---2---2---2---2---2-------------2~-|  
D|--X--X--X--X--X--X---2--0---0---0---2---2---2----------------|  
A|---------------------2--------------0---0---0----------------|  
E|---------------------0---------------------------------------|  
                                                                (((Stopping Edit Here))) 


e|-------------------------------------------------------------|  
B|-----3---3---3-----------------------------------------------|  
G|-----2---2---2-----------------------------------------------|  
D|-----0---0---0---2---2---2-----------------------------------|  
A|--2--------------0---0---0---2-----2-----2-----2-------------|  
E|--0-----------------------------4-----5-----6------7/--------|  


REFRÃO  


e|------------------------------------------3------------------|  
B|------------------------------------------3---3--------------|  
G|------------------------------------------0---2--------------|  
D|--2-------4---2---4---2-------4---2---4---0---0---2-----2----|  
A|--0---2---2---0---2---0---2---2---0---2---2-------0-----0----|  
E|------0-------------------0---------------3----------3-------|  




e|--3----------------------------------------------------------|  
B|--3---3------------------------------------------------------|  
G|--0---2------------------------------------------------------|  
D|--0---0---2-------2---2-------4---2---4---2-------4---2---4--|  
A|--2-------0-------0---0---2---2---0---2---0---2---2---0---2--|  
E|--3-----------3-----------0-------------------0--------------|  




e|-----3---3---3-----------------------------------------------|  
B|-----3---3---3-----3---3---3---------------------------------|  
G|-----0---0---0-----2---2---2---------------------------------|  
D|-----0---0---0-----0---0---0---------------------------------|  
A|-----2---2---2-----------------------------------------------|  
E|-----3---3---3-----------------------------------------------|  



SOLO  


e|-------------------------------------------------------------|  
B|-------------------------------------------------------------|  
G|-------------------------------------------------------------|  
D|---------------------------------------5---7/8\7---5---7---5-|  
A|--7--7----X-X--5--5----X-X--4-4---7--------------------------|  
E|-------------------------------------------------------------|  



e|-------------------------------------------------------------|  
B|-------------------------------------------------------------|  
G|-------------------------------------------------12----------|  
D|---------------------------12--12--12--12h14--14----14-12-14~|  
A|-7--7--X-X--5--5--X-X--4-4-----------------------------------|  
E|-------------------------------------------------------------|  



e|-------------------------------------------------------------|  
B|----------------------------------------------------15-------|  
G|-12--14b16r14p12--14--12------------12----12--14b16----14b16-|  
D|-------------------------14--12--14----14--------------------|  
A|-------------------------------------------------------------|  
E|-------------------------------------------------------------|  



e|-------------------------------------------------------------|  
B|--15-----------------------------------------------15--------|  
G|-----16r14p12--14--12---------12------14p12--14b16----14b16--|  
D|-----------------------14-14------14-------------------------|  
A|-------------------------------------------------------------|  
E|-------------------------------------------------------------|  




e|------12-12----------------12---------12---------------------|  
B|--12---------15b17--15b17------15b17------15p12--------------|  
G|-------------------------------------------------14b16r14p12-|  
D|-------------------------------------------------------------|  
A|-------------------------------------------------------------|  
E|-------------------------------------------------------------|  




e|------------------12-----------------------------------------|  
B|---------15--------------------------------------------------|  
G|--14b16-----b(16)----16r14p12--14----12h14~----12-----14-----|  
D|----------------------------------14--------14----14--14--14-|  
A|-------------------------------------------------------------|  
E|-------------------------------------------------------------|  




e|---------------------------------------12--------------------|  
B|------------15-------------------15b17----15p12----12--------|  
G|--12h14b16------16r14p12--14--------------------14----12-----|  
D|-----------------------------14--------------------------14~-|  
A|-------------------------------------------------------------|  
E|-------------------------------------------------------------|  




e|----------------------------------------------12-------------|  
B|------------------------------------------12------15b17------|  
G|--9---7--9~---7---7--7~-----6--4--6--6~----------------------|  
D|----9-----------9--------------------------------------------|  
A|-------------------------------------------------------------|  
E|-------------------------------------------------------------|  




e|-------------------------------------------------------------|  
B|--------------------------------15---------------------------|  
G|--9p7--9~---7p6--7~---6p4--6~---14b16r14b16------------------|  
D|-------------------------------------------------------------|  
A|-------------------------------------------------------------|  
E|-------------------------------------------------------------|  



BASE  O  SOLO  



e|-------------------------------------------------------------|  
B|-------------------------------------------------------------|  
G|-------------------------------------------------------------|  
D|-------7--7--7-----7--7--7-----------------------------------|  
A|--2----5--5--5-----4--4--4-------2-2-2----2-2-2----2-2-2-----|  
E|--0------------------------------0-0-0----0-0-0----0-0-0-----|  




e|-------------------------------------------------------------|  
B|-------------------------------------------------------------|  
G|-------------------------------------------------------------|  
D|--7--7--7-----7--7--7------2-----2---------------------------|  
A|--5--5--5-----4--4--4---2--0--2--0---------------------------|  
E|------------------------0-----0------------------------------|    



INTRLUIO  




e|-------------------------------------------------------------|  
B|-------------------------------------------------------------|  
G|-------------------------------------------------------------|  
D|-------------------------------------------------------------|  
A|----5p4p2--4---2---2---2------------5p4p2--4---2---2---2-----|  
E|--0----------3---5---6---7/-------0----------3---5---6---7/--|  




e|-------------------------------------------------------------|  
B|-------------------------------------------------------------|  
G|-------------------------------------------------------------|  
D|-------------------------------------------------------------|  
A|----5p4p2--4---2---2---2------------5p4p2--4---2---2---2-----|  
E|--0----------3---5---6---7/-------0----------3---5---6---7/--|  




e|-------------------------------------------------------------|  
B|-------------------------------------------------------------|  
G|-------------------------------------------------------------|  
D|----5p4p2--4---2---2---2------------5p4p2--4---2---2---2-----|  
A|--0----------3---5---6---7/-------0----------3---5---6---7/--|  
E|-------------------------------------------------------------|  




e|-------------------------------------------------------------|  
B|-------------------------------------------------------------|  
G|-------------------------------------------------------------|  
D|-------------------------------------------------------------|  
A|----5p4p2--4---2---2---2------------5p4p2--4---2---2---2-----|  
E|--0----------3---5---6---7/-------0----------3---5---6---7/--|  




FINAL  



e|-------------------------------------------------------------|  
B|-------------------------------------------12----------------|  
G|--14b17---14---9p7--9---7p6--7---6p4--6----12----------------|  
D|------------------------------------------------14-----------|  
A|-------------------------------------------------------------|  
E|-------------------------------------------------------------|  




e|-------------------------------------------------------------|  
B|-------------------------------------------------------------|  
G|--14b17---14---9p7--9---7p6--7---6p4--6----------------------|  
D|-------------------------------------------------------------|  
A|-------------------------------------------------------------|  
E|-------------------------------------------------------------|  




	  

there isn't a video lesson for this song

request
Search Paypal
auto scroll beats size up size down change color hide chords drawings
tab show chords e-chords YouTube Clip e-chords hide all tabs e-chords go to top tab