Accept

Teutonic Terror

Accept

tabs Expert expert

by  GUSTSILVA

save to print version add songbook text version e-mail correct tuner
chordsukulelecavacokeyboardtabbassdrumsharmonicaflute Guitar Pro
close

there isn't a video lesson for this song

chords

Teutonic Terror

	  		
Intro riff 

1 guitar 
E|-----------------------------------------------------| 
B|-----------------------------------------------------| 
G|-----------------------------------------------------| 
D|-2-2-2-2-2-2-2-2-2---4-5-5--2-2-2-2-2-2--5-4-4--5-7--|(x4) 
A|-2-2-2-2-2-2-2-2-2---4/5-5--2-2-2-2-2-2--5/4-4--5/7--| 
E|-0-0-0-0-0-0-0-0-0---2-3-3--0-0-0-0-0-0--3-2-2--3-5--| 
   . . . . . . . . .          . . . . . . 

2 guitar 
E|--0--0--0--0--0--0--0--0--0--0--0--0--0--0--0--------------------------| 
B|-12-12-12-12-12-11-11-11-11-11-10-10-10-10-10--8-7-7-9-7-7-8-7-7-9-7-7-| 
G|-----------------------------------------------------------------------|(x2) 
D|-----------------------------------------------------------------------| 
A|-----------------------------------------------------------------------| 
E|-----------------------------------------------------------------------| 

0:31-0:39 
1 Guitar 
E|--------| 
B|--------| 
G|--------| 
D|--2-----| 
A|--2-----| 
E|--0-----|       Several times 
2 Guitar        /------------------------ 
E|-------(P.H.)/-| 
B|--(5)---(5*)/--| 
G|---------------| 
D|---------------| 
A|---------------| 
E|---------------| 

----------------------------------------------------- 
Verse riff 
0:47-1:18 
1 Guitar 
E|----------------------------|\ 
B|----------------------------| \ 
G|----------------------------|  | 
D|-2-2-2-2-2-2-2-2-2-4-5-5----|  |(x2) 
A|-2-2-2-2-2-2-2-2-2-4-5-5----| / 
E|-0-0-0-0-0-0-0-0-0-2-3-3----|/ 
   . . . . . . . . . . . . 

E|------------------------------------------------| 
B|------------------------------------------------| 
G|------------------------------------------------| 
D|-2-2-2-2-2-2-2-2-2-4-5-5--8-7-8-----------------| 
A|-2-2-2-2-2-2-2-2-2-4-5-5--8/7/8-----------------| 
E|-0-0-0-0-0-0-0-0-0-2-3-3--6-5-6---4-5-7-5-4-5---| 
   . . . . . . . . . . . .          . . . . . . 

---------------------------------------------------------------- 
Pre-chorus riff 
1:18-1:34 
 ________________________________________________ 
| 1 Guitar 
|E|------------------------------------------------------------------------| 
|B|------------------------------------------------------------------------| 
|G|------------------------------------------------------------------------| 
|D|---9---7---2------9---7---2-2-2-2-2-2-2-2-2----9---7---2-----7--9--(9)--| 
|A|---9---7---2------9---7---2-2-2-2-2-2-2-2-2----9---7---2-----7--9--(9)--| 
|E|---7---5---0------7---5---0-0-0-0-0-0-0-0-0----7---5---0-----5--7--(7)--| 
|                            . . . . . . . . . 
|2 Guitar 
|E|------------------| 
|B|------------------| 
|G|------------------| (x3) 
|D|-5-4p2--4-2p0--2--| 
|A|------------------| 
|E|------------------| 

--------------------------------------------------------- 
Chorus riff 
1:35-1:52 
1 Guitar 
E|--------------------------------------------------------------|--|---|---| 
B|--------------------------------------------------------------|--|---|---| 
G|--------------------------------------------------------------|--|---|---| 
D|-2-2-2-2-2-2-2-2-2-4-5-5-2-2-2-2-2-2-2-2-2-4-4-5--2-2-2-2-2-2-|5-|-2-|-7-| 
A|-2-2-2-2-2-2-2-2-2-4-5-5-2-2-2-2-2-2-2-2-2-4-4-5--2-2-2-2-2-2-|5-|-2-|-7-| 
E|-0-0-0-0-0-0-0-0-0-2-3-3-0-0-0-0-0-0-0-0-0-2-2-3--0-0-0-0-0-0-|3-|-0-|-5-| 
   . . . . . . . . . . . . . . . . . . . . . . . .                   \ 

                                                         Play this chords at the same time 
2 Guitar                                                     /    /    / 
E|---------------------------------------------------------|----|---|----| 
B|---------------------------------------------------------|----|---|----| 
G|---------------------------------------------------------|-11-|-9-|-11-| 
D|--7------5-7-8------5-7-9----7-----5-------5-7-8-----7---|--x-|-x-|-x--| 
A|----7-7-7-----7-7-7------7-7---5-5---5-5-5-------7-7---7-|--9-|-7-|-9--| 
E|---------------------------------------------------------|----|---|----| 
      . . .     . . .      . .   . .   . . .       . .   . 
1 Guitar 
E|-------------------------------------------------|-------------| 
B|-------------------------------------------------|-------------| 
G|-------------------------------------------------|-------------| 
D|-2-2-2-2-2-2-2-2-2-4-5-5-2-2-2-2-2-2-2-2-2-4-4-5-|-7-5-2--7-5--| 
A|-2-2-2-2-2-2-2-2-2-4-5-5-2-2-2-2-2-2-2-2-2-4-4-5-|-7-5-2--7-5--| 
E|-0-0-0-0-0-0-0-0-0-2-3-3-0-0-0-0-0-0-0-0-0-2-2-3-|-5-3-0--5-3--| 
   . . . . . . . . . . . . . . . . . . . . . . . .         \ 
                                         Play this chords at the same time! 
2 Guitar                                                      / 
E|--------------------------------------------|-----------------| 
B|--------------------------------------------|-----------------| 
G|--------------------------------------------|-12-11--9--12-11-| 
D|--7-------5-7-8-------5-7-9-----7-----------|--x--x--x--x---x-| 
A|----7-7-7-------7-7-7-------7-7---5-5-------|-10--9--7--10--9-| 
E|--------------------------------------------|-----------------| 
      . . .       . . .       . .   . . 


-------------------------------------------------------------------------- 
Pre-solo 
3:29-3:40 
1 guitar(Rhuthm) 
E|------------------------------------------| 
B|------------------------------------------| 
G|------------------------------------------| 
D|------------------------------------------|\ 
A|-2-2-2-2--2-2-2-2--2-2-2--2-2-2--5-4-4--2-| \ 
E|-0-0-0-0--0-0-0-0--0-0-0--0-0-0--3-2-2--0-|  \ 
P.M.........................................    \ 
2 guitar (Lead)                                 | 
Use Wah-wah pedal!                              |(x2) 
3:33-3:40                                       | 
E|------------------------------------------|   | 
B|------------------------------------------|   / 
G|------------------------------------------|  / 
D|---9v-8v-7v---5---2v----------------------| / 
A|------------------------------------------|/ 
E|------------------------------------------| 

Guitar solo 
3:40-4:36 
-------------------------------------------------------------------- 
1 guitar(Rhythm) 
3:41-4:04 
E|-------------------------------------------|\ 
B|-------------------------------------------| \ 
G|-------------------------------------------| | 
D|-------------------------------------------| |x6 
A|--2-2-2-2--2-2-2-2--2-2-2--2-2-2--5-4-4--2-| / 
E|--0-0-0-0--0-0-0-0--0-0-0--0-0-0--3-2-2--0-|/ 
P.M........................................... 

2 guitar(Lead) 
Use Wah-wah 
3:41-4:03 

              /full  /full      /full         /full 
E|-----------/------/----------/-------------/----| 
B|-12/14---(14)--(14)---12----16---12-15-17-17b---| 
G|-15-15b--(15)b-(15)b--13b---18b-----------------| 
D|------------------------------------------------| 
A|------------------------------------------------| 
E|------------------------------------------------| 

E|--------------------------------| 
B|-----don't pick this note!------| 
G|----/----------------------(2)--| 
D|-4/9-9-9-9-9---9-7---7----7/2---| 
A|-------------------9---9--------| 
E|--------------------------------| 
                                        (P.H.) 
E|-------------------------------------------| 
B|--15/17-17b--17-15----------15---------15*-| 
G|-------------------16-15-14---16-14-16-----| 
D|-------------------------------------------| 
A|-------------------------------------------| 
E|-------------------------------------------| 
                                                     Sweep picking 
E|-----------------------|-------------------------------------------|-----------------------------| 
B|--17*--15h17p15p12-17v-|-17p15--17--15p12--12--12p10--10--10p8--10-|--------15b16b15-17-12-------| 
G|----------------------|------16---------14---------11---------9---|------------------------------| 
D|-----------------------|-------------------------------------------|-----------------------------| 
A|-----------------------|-------------------------------------------|-----------------------15-14-| 
E|-----------------------|-------------------------------------------|-----------------------------| 

4:04-04:19 
1 guitar(Rhuthm) 
E|---------------|\ 
B|-------------- | \ 
G|---------------| | 
D|-9-8-7-5-2-----| |x4 
A|-9-8-7-5-2-----| / 
E|-7-6-5-3-0-----|/ 

2 guitar (Lead) 
E|---------------|---------------------------|-------------------17b19-|--------------------| 
B|---------------|---------------------------|-----12-15-17------------|--------------------| 
G|---------------|---------------------------|-------------------------|------10v--9-7------| 
D|-9v-8v-7v-5-2v-|----------------------5-2v-|--9*---------------------|-/9v-----------9----| 
A|---------------|---------------------------|-------------------------|--------------------| 
E|---------------|-7v-7v-7v-6v-6v-6v-5v-3----|-------------------------|--------------------| 


E|--12-14-15-14-12-14-12-10-12------------------------------------------------------------| 
B|-----------------------------12-10-12---15b---------------------------------------------| 
G|----------------------------------------14b--14-12-11-9---7h9p7-7-----------------------| 
D|---------------------------------------------------------------9-9h8h7-7h9p7-5----------| 
A|----------------------------------------------------------------------------------------| 
E|----------------------------------------------------------------------------------------| 


E|---------------------------|---------------------------------------| 
B|---------------------------|---------------------8-10-8-10b12--10v-| 
G|---------------------------|--------7---7--9-7-9-------------------| 
D|---7b9b7p5--7-5-4----------|--9-7-9---9----------------------------| 
A|------------------7--------|---------------------------------------| 
E|--------------------7-5-7--|---------------------------------------| 


E|---12-14-15--15-17-19v--19v---| 
B|------------------------------| 
G|------------------------------| 
D|------------------------------| 
A|------------------------------| 
E|------------------------------| 
		  

See also:

tabs Scorpions - I wanted to cry tabs Helloween - Halloween tabs Scorpions - Alien Nation tabs Scorpions - Rock You Like a Hurricane tabs Scorpions - Deep and Dark tabs Edguy - Down to the Devil
e-chords

Other versions:

tabs Accept - Teutonic Terror
auto scroll beats size up size down change color hide chords drawings
tab show chords e-chords YouTube Clip e-chords hide all tabs e-chords go to top tab

share