Accept

Kill The Pain

Accept

tabs

by  BRUNBLAZKOWSKI

save to print version add songbook text version e-mail correct tuner
chordsukulelecavacokeyboardtabbassdrumsharmonicaflute Guitar Pro
close

there isn't a video lesson for this song

chords

Kill The Pain

	  		                            Accept - Kill the Pain                               

Standard Tuning 

Lead Guitar 
     ^                                       ^              
     E  S  S E  S   S Q    Q       Q    Q    Q    E  S  S   
E||-----------------------------|------------0----L-------| 
B||--8--7h-8----8h-10-7---------|--8---------8----L-------| 
G||--9-------9-------------9----|-------9----9----L-------| 
D||--9--------------------------|------------9----L--7s-9-| 
A||-----------------------------|-------------------------| 
E||-----------------------------|-------------------------| 


  E  E  E   E    E  E  E   E     H         Q    Q      
------------------------------|----------------------| 
------------------------------|----------------------| 
--9-----9--11br--L--9--8--11--|--9--------11----9----| 
-----9------------------------|------------9----9----| 
------------------------------|----------------------| 
------------------------------|----------------------| 


              |--3-|            |--3-|                     
  Q.      E   Q    H            Q    E  H        E  S  S   
-----------------------------|---------------------------| 
-----------------------------|---------------------------| 
-------------------7b--------|--L------------------------| 
--7~------9--10--------------|-------9--L--------L--7s-9-| 
-----------------------------|---------------------------| 
-----------------------------|---------------------------| 


  E  E  E   E    E  E  E   E     H         Q    E  S S   
------------------------------|------------------------| 
------------------------------|------------------------| 
--9-----9--11br--L--9--8--11--|--9--------11----9------| 
-----9------------------------|------------9-------9-8-| 
------------------------------|------------------------| 
------------------------------|------------------------| 


             |--3-|            |-3|                   
  Q.      E  Q    H            E  Q    H.             
----------------------------|-----------------------| 
----------------------------|-----------------------| 
-------------7----Lb--------|--L--------------------| 
--7------10-----------------|-----9----L------------| 
----------------------------|-----------------------| 
----------------------------|-----------------------| 


  Q      E  E   E  E  E  E     Q.      H        S S    Q.     E  Q    Q        
----------------------------|-----------------------|------------------------| 
--7br----5------------------|----------7------------|------------------------| 
------------8~--5--4--7--5--|--4~-------------------|------------------------| 
----------------------------|-------------------4-5-|--7------5--4-----------| 
----------------------------|-----------------------|-----------------7br----| 
----------------------------|-----------------------|------------------------| 


                                                               ^              
  H.           E  E     E  E  E   E    E  E  E   E     Q.      E   H          
---------------------|------------------------------|-----------------------| 
---------------------|------------------------------|---------10b--L--------| 
---------------------|--9-----9--11br--L--9--8--11--|--9-------x------------| 
------------------9--|-----9------------------------|----------x------------| 
--L------------------|------------------------------|-----------------------| 
---------------------|------------------------------|-----------------------| 


   Q.        E     E     Q.             H.            E     E    
----------------------------------|----------------------------| 
--10------<>12--<>13--<>13br------|--<>12~------------L\-------| 
----------------------------------|-----------------------/16--| 
----------------------------------|----------------------------| 
----------------------------------|----------------------------| 
----------------------------------|----------------------------| 


                                |--3--|                                  
   E   E   E   E    E.   S  E   S  S  S      H         S  E.  E   S  S   
-------------------------------------17b-|---L--------15---------------| 
--17------17--19br--L---17-20b--L-17-----|---------------17---L--15-17-| 
------16---------------------------------|-----------------------------| 
-----------------------------------------|-----------------------------| 
-----------------------------------------|-----------------------------| 
-----------------------------------------|-----------------------------| 


            |--3--|               |---3---|                                 
   Q.       S  S  S H             S   S   S  Q.       E      S  S  E  E     
------------------------------|-------------------------------------------| 
--17b------17-15-17-Lb--------|--17p-15h-17-------------------------------| 
------------------------------|-------------16b-------Lpbr--16-16~-L--L\--| 
------------------------------|-------------------------------------------| 
------------------------------|-------------------------------------------| 
------------------------------|-------------------------------------------| 


                 |---3---|      |---3---|           
   E     E   E   S   S   S  E   S   S   S  E   E    
--------------------------------------------------| 
--19br--19--17--16h-17p-16------------------------| 
---------------------------17--16h-17p-16-19--17--| 
--------------------------------------------------| 
--------------------------------------------------| 
--------------------------------------------------| 


     Q     E    H          S  S     Q.       Q.       E  E    
--------------------------------|---------------------------| 
--------------------------------|-----------12b------12-----| 
--<>16~----L\--11~--------11-12-|--14~----------------------| 
--------------------------------|---------------------------| 
--------------------------------|---------------------------| 
--------------------------------|---------------------------| 


  E   S   S  H.               W                   Q.      E   H          
---------------------------|-------------------|-----------------------| 
---------------------------|-------------------|-----------------------| 
-----14s-12----------------|-------------------|---------14b--L--------| 
------------14~------------|-------------------|-----------------------| 
---------------------------|-------------------|-----------------------| 
---------------------------|-------------------|-----------------------| 


                             PM      PM PM                                 
   W                    Q    S  S E  S  S  S S E  E     W                  
---------------------|-------------------------------|-------------------| 
---------------------|-------------------------------|-------------------| 
---L~----------------|----------7-9--------9-7-9-----|-------------------| 
---------------------|-------9-------9--9---------9--|-------------------| 
---------------------|-------------------------------|-------------------| 
---------------------|-------------------------------|-------------------| 


  Photographs... No good bye                                            
  H                          Q    E   E        H          E  S S Q      
-----------------------------------------|----------------------------| 
----------------------------------8--10--|--8g10~--------10--8-8-L----| 
-----------------------------------------|----------------------------| 
-----------------------------------------|----------------------------| 
-----------------------------------------|----------------------------| 
-----------------------------------------|----------------------------| 


  H        S S S S S S S  S    W                    W                  
----------------------------|--------------------|-------------------| 
----------------------------|--------------------|-------------------| 
-----------9-7-7-9-7--------|--------------------|--4----------------| 
---------------------9-7----|--7~----------------|--4----------------| 
-------------------------10-|--------------------|--2----------------| 
----------------------------|--------------------|-------------------| 


  H        Q    Q       H        H           H.             Q      
---------------------|-----------0--------|----------------------| 
---------------------|-----------0--------|----------------------| 
----------------8----|--9-----------------|---------------/12----| 
--7--------9----8----|--9-----------------|----------------------| 
--7--------9----6----|--7-----------------|----------------------| 
--5--------7---------|--------------------|----------------------| 


     E  Q.      S E  S E  S  S    W                  
-------------------------------|-------------------| 
-------------------------------|-------------------| 
--12g9--L~------7--------------|-------------------| 
------------------9--7-5-------|-------------------| 
--------------------------5h-7-|--7----------------| 
-------------------------------|-------------------| 


                   PM PM                                                        
  H         E   E  S  S   E       W                    E.  S Q      H           
-------------------------------|--------------------|-------------------------| 
-----------12--12--------10br--|--L~----------------|-------------------------| 
------------9---9--------------|--------------------|------4-7br----7b--------| 
-------------------x--x--------|--------------------|-------------------------| 
-------------------------------|--------------------|-------------------------| 
-------------------------------|--------------------|-------------------------| 


                                ^                 
  W                    H        S S S S E   S S   
--------------------|-----------5-7-8-7-5~------| 
--------------------|-----------5-----------8-5-| 
--L~----------------|---------------------------| 
--------------------|---------------------------| 
--------------------|---------------------------| 
--------------------|---------------------------| 


  S  E.   Q    S S S  S  S S  E     H         S  S E   S   S  E     
------------------------10-7-----|------------------------10------| 
--5s-8~---L----L---8-10------10--|-----------10p-8----10b----10b--| 
-----------------9---------------|-----------------9--------------| 
---------------------------------|--------------------------------| 
---------------------------------|--------------------------------| 
---------------------------------|--------------------------------| 


                            |---3--|                 
   H.            E   E      Q      E  H.             
------------------------|--------------------------| 
--10~------------L--12--|--13p----12--L------------| 
--------------------11--|--11------L--L------------| 
------------------------|--------------------------| 
------------------------|--------------------------| 
------------------------|--------------------------| 


   Q      Q      Q      Q        W                     W                  
-----------------------------|----------------------|-------------------| 
-----------------------15----|--15b~----------------|-------------------| 
--14~----16b----16b----------|----------------------|-------------------| 
-----------------------------|----------------------|--7----------------| 
-----------------------------|----------------------|--7----------------| 
-----------------------------|----------------------|--5----------------| 


                               To kill the pain tonight        
  W                   H        Q                        Q      
-------------------|-----------------------------------------| 
-------------------|-----------------------------------------| 
-------------------|------------------------------------8----| 
--9----------------|--7--------9------------------------8----| 
--9----------------|--7--------9------------------------6----| 
--7----------------|--5--------7-----------------------------| 


                                           |---3---|       
  H        H           Q     Q.        E   S  S    Q       
-----------0--------|-------15---------------------------| 
-----------0--------|-------17br------17--15-17-<>17~----| 
--9-----------------|------------------------------------| 
--9-----------------|------------------------------------| 
--7-----------------|------------------------------------| 
--------------------|------------------------------------| 


  Q    S  S  S  S  S  S  Q     E     
-----------------------------------| 
------------15-17-17-17b-L----17~--| 
---------16------------------------| 
-----------------------------------| 
-----------------------------------| 
-----------------------------------| 


      |--3--|  |--3--|  |--3--|  |--3--|  |--3--|  |--3--|       
  E   S  S  S  S  S  S  S  S  S  S  S  S  S  S  S  S  S  Q       
---------------------------------------------------------------| 
--L-----17----15-----------------------------------------------| 
-----16----16----16-14----16----14-----------------------------| 
-----------------------16----16----16-14-12----------12-14b----| 
--------------------------------------------14----14-----------| 
-----------------------------------------------12--------------| 


  Q       Q     E  E.   E.     
-----------------------------| 
-----------------------22b---| 
-----------------------------| 
--L----<>14~----x------------| 
-----------------------------| 
-----------------------------| 


   |--|    |--|    |---3--|  |---3--|   |---3--|                |------5-----|   
   S  E    S  E    S  S   S  S   S  S   S  S   S  T   T  T  T   T  T  T  T   T   
--19------19------19-----19-----19-----19-----19-----19----22p-19----19-22p-19-- 
-----22b-----22b-----22b----22b----22b----22b----22b----22--------22-----------2 
-------------------------------------------------------------------------------- 
-------------------------------------------------------------------------------- 
-------------------------------------------------------------------------------- 
-------------------------------------------------------------------------------- 


   |------5-----|  |------5-----|   |------5-----|  |------5-----|  |------5---- 
   T  T   T  T  T  T   T  T  T  T   T  T  T  T   T  T  T  T   T  T  T  T   T  T  
--19-22p-19----19-22p-19----19-22p-19----19-22p-19----19-22p-19----19-22p-19---- 
------------22-----------22-----------22-----------22-----------22-----------22- 
-------------------------------------------------------------------------------- 
-------------------------------------------------------------------------------- 
-------------------------------------------------------------------------------- 
-------------------------------------------------------------------------------- 


              |---3--|  |--3--|  |--3--|  |--3--|      
  Q     S  S  S   S  S  S  S  S  S  S  S  S  S  Q      
-----------------------------------------------------| 
--L----20-19-20p-19----19----------------------------| 
--------------------21----21-19----21----19-21b-L----| 
--------------------------------21----21-------------| 
-----------------------------------------------------| 
-----------------------------------------------------| 


              PM                                                           
     E.   S   S  S  S  S Q     E   E     Q      E  T  T  S  E  E  E   E    
--------------------------------------|----------------------------------| 
----------------------12-L~----L\-----|--7br-----------------------------| 
--<>21~---L\--------------------------|---------9--8h-9p-8--------7------| 
----------------12-14-----------------|--------------------10--9-----10--| 
--------------------------------------|----------------------------------| 
-------------12-----------------------|----------------------------------| 


  H         Q.      S  S   
-------------------------| 
-------------------------| 
-------------------------| 
--9~---------------------| 
------------9------------| 
-------------------14-15-| 


   |--3--|  |--3--|  |--3--|  |--3--|  |---3---|   |---3---|     
   S  S  S  S  S  S  S  S  S  S  S  S  E   E   E   E   E   E     
------------------------------------------15--17--15--17--17b--| 
--------------------------------15-17-19-----------------------| 
-----------------------14-16-17--------------------------------| 
--------------14-16-17-----------------------------------------| 
-----14-15-17--------------------------------------------------| 
--17-----------------------------------------------------------| 


  H         S  S  S  S  S  E    S     Q      Q      E   Q     S  S   
--L--------17-15----17-15-17~--15-|--17b----17~----17--------------| 
-----------------17---------------|--------------------17----17-19-| 
----------------------------------|--------------------------------| 
----------------------------------|--------------------------------| 
----------------------------------|--------------------------------| 
----------------------------------|--------------------------------| 


                                               |--3--|  |--3--|                 
   Q.        S    S    Q.         E      Q     S  S  S  S  S  S  Q      Q       
--------------------------------------|----------------19-20-22-22b----22b----| 
--20------<>20-<>19-<>20~------<>20b--|--L----19-20-22------------------------| 
--------------------------------------|---------------------------------------| 
--------------------------------------|---------------------------------------| 
--------------------------------------|---------------------------------------| 
--------------------------------------|---------------------------------------| 


                                        PM PM                 PM PM PM   
                                                              |--3--|    
   W                    H.           E  S  S     H.           E  E  E    
--22b----------------|------------------------|------------------------| 
---------------------|------------------------|------------------------| 
---------------------|------------------------|------------------------| 
---------------------|--7------------L--------|--9------------9--9--9--| 
---------------------|--7------------L--------|--9------------9--9--9--| 
---------------------|--5------------L--5--5--|--7------------7--7--7--| 


       PM PM PM                                 
       |--3--|                                  
  Q    E  E  E  Q    Q       W                  
--------------------------|-------------------| 
--------------------------|-------------------| 
---------------------8----|-------------------| 
--7----7--7--7--9----8----|--2----------------| 
--7----7--7--7--9----6----|--2----------------| 
--5----5--5--5--7---------|--0----------------| 


                                 |--3--|   
  E.   S  S  S   E.    T T  Q    S  S  S   
-----------------------------------------| 
------12-15-15b-15b~---L-L\--------------| 
-----------------------------------17-19-| 
-----------------------------------------| 
-----------------------------------------| 
-----------------------------------------| 


   S  S    Q       S. S  S. Q     E     
--------------------------------------| 
--17-17-<>18br----17~-L\---------22b--| 
--------------------------------------| 
--------------------------------------| 
--------------------------------------| 
--------------------------------------| 


             |---3--|  |---3--|   |----3----|  |---3--|                          
  E   S  S   S  S   S  S   S  S   S  S   T  T  S   S  S  T   T  T  T   T  T  T   
-----19-----19-----19-----19-----19-----19--------19-19-22p-19----22p-19----19-- 
--L-----22b----22b----22b----22b----22b----19-22b--------------22--------22----2 
-------------------------------------------------------------------------------- 
-------------------------------------------------------------------------------- 
-------------------------------------------------------------------------------- 
-------------------------------------------------------------------------------- 


   |--3--|         |--3--|                        
   S  S  S  Q      S  S  S  E.   S  S  S   S  S   
------------------------------------------------| 
--19----22-22--------------------------------12-| 
-----21----21b----21-19-21-21~---L\----------12-| 
--------------------------------------12h-14----| 
------------------------------------------------| 
------------------------------------------------| 


                 |--3--|                        
     E.    E.    S  S  S  E.    S  S  S  S  S   
----------------------------------------------| 
----------12~------------12~------------------| 
--<>14b---------12----14-12~------------------| 
-------------------14----------14-12-12-12-12-| 
----------------------------------------------| 
----------------------------------------------| 


         |-3-|  |--3--|                     
   S  S  E   S  S  S  Q      Q    E   E     
------------------------------------------| 
---------------------12b-------------15b--| 
---------------------12b------------------| 
--14-14~-L--12----14--------14------------| 
---------------14-------------------------| 
------------------------------------------| 


      |--|    |---3--|  |---3--|   |------7-----|   |------7-----|  7   7  7   7 
  E   S  E    S  S   S  S   S  S   S  S  S   S  S   S  S  S  S   S  S   S  S   S 
-----12------12-----12-----12-----12-12-15p-12-15p-12----12--------------------- 
--L-----15b-----15b----15b----15b---------------------15----15p-12-15p-12-15p-12 
-------------------------------------------------------------------------------- 
-------------------------------------------------------------------------------- 
-------------------------------------------------------------------------------- 
-------------------------------------------------------------------------------- 


                                |--3--|                        
   T  T  T   T   T  T  T  T E   S  S  S   S    E.   S   E.     
-------------------------------------------------------------| 
-----12---------------14-12-L--------------------------10b---| 
--15----15p-14p-12----14-12-L--------------------------------| 
-------------------14----------14-12-12h-14-<>14~---L\-------| 
-------------------------------------------------------------| 
-------------------------------------------------------------| 


          PM                                            PM PM        
                   |-3|                                              
   Q      S  S S S E  S S S   Q       E  S  S Q     S S S  S  Q      
-----------------------------------|-------------------------------| 
--10br-----------5-----------------|-------------------------------| 
-----------------------------------|-------------------------------| 
----------7--5-7---7--5------------|-------------------------------| 
------------------------7-5-<>7----|--L--2p-0-2b----L-0------------| 
-----------------------------------|--------------------3--2--0----| 


  \1/                                                                         
                 |-3|      |-3-|                                              
  Q    S S E   S E  S E.   S S S    E   E.    S  S  T T    E    S  S  Q       
---------------------------------|-----------10-------------------10--------| 
--------------------5-8b---5-5-5-|--5--10b------10b-L-8-<>10br--8----10b----| 
---------------------------------|------------------------------------------| 
---------------5-7---------------|------------------------------------------| 
-------5-7-7~--------------------|------------------------------------------| 
--L------------------------------|------------------------------------------| 


   S  E.    S    T  Q     T  T  T  T  T  T  T T T T T T T   
--10-------10---------------------------------------------| 
-----10b------<>10b-L-----Lp-8-10p-8s-7h-8p-7---7---------| 
----------------------------------------------9---9-7-9-7-| 
----------------------------------------------------------| 
----------------------------------------------------------| 
----------------------------------------------------------| 


  E.     S     Q       S S  Q.         
---------------------------17--------| 
---------------------------17br------| 
--Lb---<>7pb-<>7pb~------------------| 
-----------------------x-x-----------| 
-------------------------------------| 
-------------------------------------| 


        |--3--|                                 
   E    S  S  S  Q     S    Q      S  S    S    
----------------------------------------------| 
--17~--15-17-17b-L----17-<>17~----17-15-<>17~-| 
----------------------------------------------| 
----------------------------------------------| 
----------------------------------------------| 
----------------------------------------------| 


        PMPM PM                                     
        |--3-|                            |--3--|   
  S S   S S  S   Q      S  S  S    S  E   S  S  S   
--------------------------------------------------| 
--L-L\----------14b----14-------------------------| 
----------------14b----14-12-14-<>14~-L--12-------| 
--------------------------------------------14-12-| 
-------10-7---------------------------------------| 
-------------7------------------------------------| 


                                                 PM PM     
   |--|   |--3--|  |--3--|   |--3--|             |--3--|   
   S  E   S  S  S  S  S  S   S  S  S  Q     E    S  S  S   
---------------------------------------------------------| 
--12-----------------------------------------------------| 
--12-----------------------------------------------------| 
-----14--------------------------------------------------| 
---------14-13-14-13-12-14p-12----12b-L----12~--10----12-| 
-------------------------------15------------------12----| 


                          |---3--|  |--|   |--3--|   
   Q     S  S  S   S  E   S  S   S  S  E   S  S  S   
---------------------------------------------------| 
------------------------------------------------15-| 
--------------------------------------12-----12----| 
-----------------------------------14-----14-------| 
--10---------------------10-12s-14-----------------| 
--------12-10-10s-12-12----------------------------| 


   |--5-|               |------5------|  |------5-----|   |------5------|  |---- 
   E    T  T  T   T  T  T   T  T  T   T  T  T   T  T  T   T   T  T  T   T  T  T  
----------12----------------------------12--------------------------------12---- 
-------12----15p-12----15p-12----12h-15----15p-12----12h-15p-12----12h-15----15p 
--14b---------------14--------14------------------14------------14-------------- 
-------------------------------------------------------------------------------- 
-------------------------------------------------------------------------------- 
-------------------------------------------------------------------------------- 


                         |-------5------|   |------5-----|  |-------5-------|  | 
   Q      E     T  T  S  T  T   T   T   T   T  T  T   T  T  T   T   T   T   T  T 
--17b----17br--15----17----15h-17h-18p-17p-15----17p-15----15h-17h-18p-17p-15-17 
------------------17----17--------------------17--------17---------------------- 
-------------------------------------------------------------------------------- 
-------------------------------------------------------------------------------- 
-------------------------------------------------------------------------------- 
-------------------------------------------------------------------------------- 


   Q      S  E.    S  E.    S  E.     
---------15-------15-------15-------| 
--17b-------17b------17b------17b---| 
------------------------------------| 
------------------------------------| 
------------------------------------| 
------------------------------------| 


            |--3--|                                 |--3--|   
   S  E.    S  S  Q      T  T  T  T  T  T  T  T E   S  S  S   
--15--------------------------------------------------------| 
-----17~---15-17-17b----15-12-------------14-12-L-----------| 
------------------------------15-14-12----14-12-L-----------| 
---------------------------------------14----------14-12-12-| 
------------------------------------------------------------| 
------------------------------------------------------------| 


   E.  S E.   S S T  T T T T  T  T  T T S T  T  T    W                   
----------------0---------------------------------|-------------------|| 
--------------0---3p-0---0--------------0---------|-------------------|| 
-------0-2b------------2---2p-0h-2p-0---0---------|-------------------|| 
--14----------------------------------2---2p-0h-2-|--2----------------|| 
--------------------------------------------------|--0----------------|| 
--------------------------------------------------|-------------------|| 




Duration Legend 
--------------- 
W - whole 
H - half 
Q - quarter 
E - 8th 
S - 16th 
T - 32nd 
X - 64th 
. - note dotted 
|-n-|  - n-tuplets 


Tablature Legend 
---------------- 
L - tied note 
x - dead note 
g - grace note 
(n) - ghost note 
> - accentuded note 
NH - natural harmonic 
AH - artificial harmonic 
TH - tapped harmonic 
SH - semi harmonic 
PH - pitch harmonic 
h - hammer on 
p - pull off 
b - bend 
br - bendRelease 
pb - preBend 
pbr - preBendRelease 
brb - bendReleaseBend 
\n/ - tremolo bar dip 
\n - tremolo bar dive 
-/n - tremolo bar Release up 
/n\ - tremolo bar inverted dip 
/n - tremolo bar return 
-\n - tremolo bar Release down 
S - shift slide 
s - legato slide 
/ -  slide into from below or out of upwards 
\ -  slide into from above or out of downwards 
~ - vibrato 
W - wide vibrato 
tr - trill 
TP - tremolo picking 
T - tapping 
S - slap 
P - pop 
< - fade in 
^ - brush up 
v - brush down 
		  

See also:

tabs Scorpions - I wanted to cry tabs Helloween - Halloween tabs Scorpions - Alien Nation tabs Scorpions - Rock You Like a Hurricane tabs Scorpions - Deep and Dark tabs Edguy - Down to the Devil
e-chords

Other versions:

tabs Accept - Kill The Pain
auto scroll beats size up size down change color hide chords drawings
tab show chords e-chords YouTube Clip e-chords hide all tabs e-chords go to top tab

share