ABBA

home > ABBA

The Winner Takes It All Tab

ABBA

Difficulty: ExpertExpert

by Rafaelhvp

tuner correct add songbook print version text version save to e-mail
chordsukulelecavacokeyboardtabbassdrumsharmonicsflute Guitar Pro
chords

The Winner Takes It All

Year: 1993 - Album: The Definitive Collection

	  e---7---6--------------6---------------------------- 
b----------8----7----7-----9----7---6--------------- 
g-6--6--6----6-----6-----8---8----8---8-8----------- 
d--------------------------------------------------- 
a--------------------------------------------------- 
E--------------------------------------------------- 

e-----9----7----6--------------------------------- 
b--------------------9------7--6----4------------- 
g--8----8-----8----8------6--6---6----6~---------- 
d------------------------------------------------- 
a------------------------------------------------- 
E------------------------------------------------- 

Essa é música original é tocada em F# 
	  

Search Paypal
auto scroll beats size up size down change color hide chords drawings
tab show chords e-chords YouTube Clip e-chords hide all tabs e-chords go to top tab